Fall Out Boy - Our Lawyer Made Us Change The Name Of This Song So We Wouldnt Get Sued Chords & Tabs

 

Our Lawyer Made Us Change The Name Of This Song So We Wouldnt Get Sued Chords & Tabs

Fall Out Boy Chords & Tabs

Version: 1 Type: Bass Tab

Our Lawyer Made Us Change The Name Of This Song So We Wouldnt Get Sued Bass Tab

   
----------------------------------------------------------------------------
Our Lawyer Made Us Change The Name Of This Song So We Would'nt Get Sued - Fall Out Boy
-------------------------------------------------------------------------------

Tabbed By : Matt 
e-mail: snwbrd5830@aol.com

Tuning: D,A,D,G

Intro X2
G|---------------------------------|
D|---------------------------------|
A|-----------11111111--------------|
D|-000000000------------55555555---|

Verse 
G|---------------------------------|
D|---------------------------------|
A|----0011--00---0011--33--11111---|
D|-00---------55-------------------|

G|----------------------------------------|
D|----------------------------------------|
A|-3333333---------1111111--33333333------|
D|---------5555555---------------------5--|

Chorus
G|--------------------------------------------------------|
D|--------------------------------------------------------|
A|--------------111111------------------------------------|
D|--333-33222-22--------333-33222-2211111110000000000000--|

G|--------------------------------------|
D|--------------------------------------|
A|--------3333333-----------------------|
D|-000000---------5555555--3333322222---|
[ Tab from: http://www.guitartabs.cc/tabs/f/fall_out_boy/our_lawyer_made_us_change_the_name_of_this_song_so_we_wouldnt_get_sued_btab.html ]
Post Chorus X2
G|-----------------------------------------------|
D|-----------------------------------------------|
A|-----------------------1-1111-1111-------------|
D|-0-0000-0000-0000-0000------------5-5555-5555--|
followed by
G|---------------------------------|
D|---------------------------------|
A|---------------------------------|
D|-0-0-0-0-0-0-0-0-0-0-0-0---------|

Verse
G|---------------------------------|
D|---------------------------------|
A|----0011--00---0011--33--11111---|
D|-00---------55-------------------|

G|------------------------------------------|
D|------------------------------------------|
A|-3333333---------1111111--33333333--------|
D|---------5555555---------------------5-5--|

Chorus
G|--------------------------------------------------------|
D|--------------------------------------------------------|
A|--------------111111---------------------11111111111----|
D|--333-33222-22--------333-33222-221111111---------------|

G|--------------------------------------|
D|--------------------------------------|
A|--------3333333-----------------------|
D|-000000---------5555555--3333322222---|

Bridge X2
G|---------------------------------|
D|---------------------------------|
A|-------------------------0-1-3---|
D|-0-0-0-0-0-0-0-0-0-0-0-5---------|

Chorus
G|-----------------------------------------------------------|
D|-----------------------------------------------------------|
A|--------------111111111------------------------------------|
D|--333333222222-----------3333332222211111110000000000000---|

G|------------------------------------|
D|------------------------------------|
A|--------3333333-----------------1~--|
D|-000000---------5555555--3~ 2~------|



===============================================================================