Fall Out Boy - My Heart Is The Worst Kind Of Weapon Chords & Tabs

 

My Heart Is The Worst Kind Of Weapon Chords & Tabs

Fall Out Boy Chords & Tabs

Version: 1 Type: Tab 0 ratings
1 star 2 stars 3 stars 4 stars 5 stars
comments

My Heart Is The Worst Kind Of Weapon Tab

   
Fall out boy
my heart is the worst kind of weapon
Modified by : John Cukras
Original creator: Unknown

Acoustic

Riff 1:
e-0-0-0X-0-0-0X-0-0-0X-0-0-0X-0-0-0X-0-0-0X-8--8--8X--8--8--8X--------|
B-0-0-0X-0-0-0X-0-0-0X-0-0-0X-0-0-0X-0-0-0X-8--8--8X--8--8--8X--------|
G-5-5-5X-5-5-5X-5-5-5X-5-5-5X-9-9-9X-9-9-9X-10-10-10X-10-10-1---------|0X
D-5-5-5X-5-5-5X-5-5-5X-5-5-5X-9-9-9X-9-9-9X-10-10-10X-10-10-1---------|0X
A-0-0-0X-0-0-0X-3-3-3X-3-3-3X-7-7-7X-7-7-7X-8--8--8X--8--8--8X--------|
E------X------X------X------X-0-0-0X-0-0-0X--------X---------X- x's 4-|

Riff 2:
e----------------------------------|
B--------------1111----------------|
G----------555-2222-555-5555-------|
D-7777-555-555-2222-555-5555-------|
A-7777-555-333-0000-333-3333-------|
E-5555-333------------------ x's 2-|
[ Tab from: http://www.guitartabs.cc/tabs/f/fall_out_boy/my_heart_is_the_worst_kind_of_weapon_tab.html ]
Riff 1 x's 2

Riff 3: X's 4
   F   C  Am
e|-1-|-0-|-0-|
B|-1-|-1-|-0-|
G|-2-|-0-|-1-|
D|-3-|-2-|-2-|
A|-3-|-3-|-2-|
E|-1-|-0-|-0-| F struck round 8-10 times, C/Am are round 4-6 each

Riff 1 x's 4

Riff 3 x's 4

Riff 4:
E-----------------|
B-----------------|
G-----------------|
D-----------------|
A-----------------|
E-0-11 x's 6--0-1-|

Riff 5:
e--------0----000-000-------|
B--------0----000-000-------|
G-2-22-2-2-2--000-000-------|
D-3-33-3-3-3--222-222-------|
A-3-33-3-3-3--222-333-------|
E-1-11-1-1-1--000-000 x's 4-|

Riff 6:          Light   Hard
E-0--0--00-----------------------|
B-0--0--00-8--8--888888-8888888--|
G-5--5--99-8--8--888888-8888888--|
D-5--5--77-10-10-101010-10101010-|
A-0--3--00-8--8--888888-8888888--|
E--------------------------------|
Comments