Fall Out Boy - More Than I Can Take Chords & Tabs

 

More Than I Can Take Chords & Tabs

Fall Out Boy Chords & Tabs

Version: 1 Type: Tab 0 ratings
1 star 2 stars 3 stars 4 stars 5 stars
comments

More Than I Can Take Tab

band: fall out boy
song: more than I can take

tabber: John cukras
email: riffreaper@yahoo.com

tuning: normal

Riff 1:   Guitar 1                Guitar 2
E-----------------------------|----------------------------|
B-----------------------------|----------------------------|
G-----------------------------|----------------------------|
D-----------------------------|----------------------------|
A-7777-4444-3333-5555---------|--7777-4444-3333-5555-------|
E-5555-2222-1111-3333 x's 12--|--5555-2222-1111-3333 x's 6-|
pm.... .... .... ....

Riff 2:
E---------------------------------------|
B---------------------------------------|
G---------------------------------------|
D---------------------------------------|
A-7777777-4444444-999999-12121212-------|
E-5555555-2222222-777777-10101010 x's 2-|

Riff 1

Riff 2
[ Tab from: http://www.guitartabs.cc/tabs/f/fall_out_boy/more_than_i_can_take_tab.html ]
Riff 3:  Guitar 1
E--------------------------------------------------------------------------------------------|
B--------------------------------------------------------------------------------------------|
G------------15-14-13-12-11------------------------------------------------------------------|
D-------------------------------------12~------------15-17-16-15-14--------------------------|
A-77-11-1212-----------------77-99-11-------77-99-11-----------------77-99-11-5-7-88-5-7-88--|
E-55-99-1010-----------------55-77-99-------55-77-99-----------------55-77-99----------------|

 Guitar 1 cont.             Guitar 2
E--------------------|-------------------------------------------------------------------------|
B--------------------|-12-11-9 x's 4-11h12 (lots)--11-1212121212-9-1212121212-11-151515151515--|
G--------------------|-------------------------------------------------------------------------|
D--------------------|-------------------------------------------------------------------------|
A-77-44-33-55--------|-------------------------------------------------------------------------|
E-55-22-11-33 x's 6--|-------------------------------------------------------------------------|

Riff 2 x's 4
Comments