Fall Out Boy - Love Will Tear Us Apart Chords & Tabs

 

Love Will Tear Us Apart Chords & Tabs

Fall Out Boy Chords & Tabs

Version: 3 Type: Tab

Love Will Tear Us Apart Tab

   
-------------------------------------------------------------------------------
			     SONG NAME - Band Name
-------------------------------------------------------------------------------
Tabbed by:Willmclnz
Email: Willmclnz@hotmail.com

Tuning:Standard

This is my first tab so I hope it is alright. Haven't tabbed out most of the strumming 
the song

Intro - Not too sure about this

e|--------------------------------------------------------------------------|
B|--------------------------------------------------------------------------|
G|--------------------------------------------------------------------------|
D|--------------------------------------------------------------------------|
A|---17--19--16--------17--19--16--14--12-----------------------------------|
E|---17--19--16--------17--19--16--14--12-----------------------------------|

e|--------------------------------------------------------------------------|
B|--------------------------------------------------------------------------|
G|--------------------------------------------------------------------------|
D|--------------------------------------------------------------------------|
A|---17--19--16--14--12--------17--19--16-----------------------------------|
E|---17--19--16--14--12--------17--19--16-----------------------------------|

e|----0------0------0------0---0------------|
B|----0------0------0------3---2------------|
G|----0------7------7------2---2------------|    x2
D|----2------0------0------2---2------------|
A|----2-----/9------5------0---0------------|
E|----0-----10------7------0---0------------|

Verse 1

e|----0------0------0------0---0------------|
B|----0------0------0------3---2------------|
G|----0------7------7------2---2------------|    x3
D|----2------0------0------2---2------------|
A|----2-----/9------5------0---0------------|
E|----0-----10------7------0---0------------|

Chorus

e|----0------0------0------0---0------------|
B|----0------0------0------3---2------------|
G|----0------7------7------2---2------------|    x3
D|----2------0------0------2---2------------|
A|----2-----/9------5------0---0------------|
E|----0-----10------7------0---0------------|

e|----0------0------0------0---------------|
B|----0------0------0------3---------------|
G|----0------7------7------2---------------|
D|----2------0------0------2---------------|
A|----2-----/9------5------0---------------|
E|----0-----10------7------0---------------|

Verse 2

e|--0-0-0x--0-0-0x---0-0-0x--0-0-0x---0-0-0x-0-0-0x---0-0-0x--0-0-0x----|
B|--0-0-0x--0-0-0x---0-0-0x--0-0-0x---0-0-0x-0-0-0x---3-3-3x--2-2-2x----|
G|--0-0-0x--0-0-0x---7-7-7x--7-7-7x---7-7-7x-7-7-7x---2-2-2x--2-2-2x----| x2
D|--2-2-2x--2-2-2x---0-0-0x--0-0-0x---0-0-0x-0-0-0x---2-2-2x--2-2-2x----|
A|--2-2-2x--2-2-2x--/9-9-9x--9-9-9x---5-5-5x-5-5-5x---0-0-0x--0-0-0x----|
E|--0-0-0x--0-0-0x--101010x-101010x---7-7-7x-7-7-7x---0-0-0x--0-0-0x----|
[ Tab from: http://www.guitartabs.cc/tabs/f/fall_out_boy/love_will_tear_us_apart_tab_ver_3.html ]
e|--0-0-0x--0-0-0x---0-0-0x--0-0-0x---0----0---0-----|
B|--0-0-0x--0-0-0x---0-0-0x--0-0-0x---0----3---2-----|
G|--0-0-0x--0-0-0x---7-7-7x--7-7-7x---7----2---2-----|
D|--2-2-2x--2-2-2x---0-0-0x--0-0-0x---0----2---2-----|
A|--2-2-2x--2-2-2x--/9-9-9x--9-9-9x---5----0---0-----|
E|--0-0-0x--0-0-0x--101010x-101010x---7----0---0-----|

Chorus

e|----0------0------0------0---0------------|
B|----0------0------0------3---2------------|
G|----0------7------7------2---2------------|    x3
D|----2------0------0------2---2------------|
A|----2-----/9------5------0---0------------|
E|----0-----10------7------0---0------------|

e|----0------0------0------0---------------|
B|----0------0------0------3---------------|
G|----0------7------7------2---------------|
D|----2------0------0------2---------------|
A|----2-----/9------5------0---------------|
E|----0-----10------7------0---------------|

Post Chorus

e|----0----0-----------|
B|----3----2-----------|
G|----2----2-----------| x2
D|----2----2-----------|
A|----0----0-----------|
E|----0----0-----------|

e|----0------0------0------0---0------------|
B|----0------0------0------3---2------------|
G|----0------7------7------2---2------------|    x2
D|----2------0------0------2---2------------|
A|----2-----/9------5------0---0------------|
E|----0-----10------7------0---0------------|


Verse 3

e|----0x--------------------|
B|----0x--------------------|
G|----0x--------------------|
D|----2x--------------------|
A|----2x--------------------|
E|----0x--------------------|

e|--------------------------|
B|--------------------------|
G|--------------------------|
D|--------------------------|
A|--------------------------|
E|--------------------------|

e|----0------0------0------0---0------------|
B|----0------0------0------3---2------------|
G|----0------7------7------2---2------------|
D|----2------0------0------2---2------------|
A|----2-----/9------5------0---0------------|
E|----0-----10------7------0---0------------|
pm    .......................

Chorus

e|----0------0------0------0---0------------|
B|----0------0------0------3---2------------|
G|----0------7------7------2---2------------|    x7
D|----2------0------0------2---2------------|
A|----2-----/9------5------0---0------------|
E|----0-----10------7------0---0------------|

e|----0------0------0------0---------------|
B|----0------0------0------3---------------|
G|----0------7------7------2---------------|
D|----2------0------0------2---------------|
A|----2-----/9------5------0---------------|
E|----0-----10------7------0---------------|

Outro

play once
e|----0~------0~------0~---------------------|
B|----0~------0~------0~---------------------|
G|----0~------7~------7~---------------------|
D|----2~------0~------0~---------------------|
A|----2~-----/9~------5~---------------------|
E|----0~-----10~------7~---------------------|


| /  slide up
| \  slide down
| h  hammer-on
| p  pull-off
| ~  vibrato
| +  harmonic
| x  Mute note
===============================================================================