Fall Out Boy - Love Will Tear Us Apart Chords & Tabs

 

Love Will Tear Us Apart Chords & Tabs

Fall Out Boy Chords & Tabs

Version: 2 Type: Tab 0 ratings
1 star 2 stars 3 stars 4 stars 5 stars
comments

Love Will Tear Us Apart Tab

   
Fall Out Boy - Love will tear us apart


INTRODUCTION

   b b    b b b      a a     a a    a a a a
   m m    m m m
e|-2-2----2-2-2------0-0-----0-0----0-0-0-0-------------|
B|-3-3----3-3-3------2-2-----2-2----2-2-2-2-------------|
G|-4-4----4-4-4------2-2-----2-2----2-2-2-2-------------|
D|-4-4----4-4-4------2-2-----2-2----2-2-2-2-------------|
A|-2-2----2-2-2------0-0-----0-0----0-0-0-0-------------|
E|------------------------------------------------------|
   
   b    b b b b    d  d d d d   b  b b b b b a  a a
   m    m m m m                 m  m m m m m
e|-2----2-2-2-2-----------------2--2-2-2-2-2-0--0-0-----|
B|-3----3-3-3-3----7--7-7-7-7---3--3-3-3-3-3-2--2-2-----|
G|-4----4-4-4-4----7--7-7-7-7---4--4-4-4-4-4-2--2-2-----|
D|-4----4-4-4-4----7--7-7-7-7---4--4-4-4-4-4-2--2-2-----|
A|-2----2-2-2-2----5--5-5-5-5---2--2-2-2-2-2-0--0-0-----|
E|------------------------------------------------------|

   b  b b  b d  d d d d d  b  b b b b b  a  a a
   m  m m  m               m  m m m m m
e|-2--2-2--2---------------2--2-2-2-2-2--0--0-0---------|
B|-3--3-3--3-7--7-7-7-7-7--3--3-3-3-3-3--2--2-2---------|
G|-4--4-4--4-7--7-7-7-7-7--4--4-4-4-4-4--2--2-2---------|
D|-4--4-4--4-7--7-7-7-7-7--4--4-4-4-4-4--2--2-2---------|
A|-2--2-2--2-5--5-5-5-5-5--2--2-2-2-2-2--0--0-0---------|
E|------------------------------------------------------|



e|-------0-------0-------0-------0---|
B|---3-------3-------3-------3-------|
G|-4---4---4---4---4---4---4---4-----|
D|-----------------------------------|
A|-----------------------------------|
E|-----------------------------------|


e|-------0-------0-------0-------0---|
B|---2-------2-------2-------2-------|
G|-2---2---2---2---2---2---2---2-----|
D|-----------------------------------|
A|-----------------------------------|
E|-----------------------------------|

[ Tab from: http://www.guitartabs.cc/tabs/f/fall_out_boy/love_will_tear_us_apart_tab_ver_2.html ]
e|-------0-------0-------0-------0---|  \
B|---3-------3-------3-------3-------|   \
G|-4---4---4---4---4---4---4---4-----|    \
D|-----------------------------------|     \
A|-----------------------------------|      \
E|-----------------------------------|       \
                                              x 2
                                             /
e|-------0-------0-------0-------0---|      /
B|---3-------3-------2-------2-------|     /
G|-4---4---4---4---2---2---2---2-----|    /
D|-----------------------------------|   /
A|-----------------------------------|  /
E|-----------------------------------| /




	Verse

   b    b d    b    b d  d a
   m    m      m    m
e|-2----2------2----2------0----------------------------|
B|-3----3-7----3----3-7--7-2----------------------------|
G|-4----4-7----4----4-7--7-2----------------------------|
D|-4----4-7----4----4-7--7-2----------------------------| x 2
A|-2----2-5----2----2-5--5-0----------------------------|
E|------------------------------------------------------|

   b    b d    b    b a a a a a a a a
   m    m      m    m
e|-2----2------2----2-0-0-0-0-0-0-0-0-------------------|
B|-3----3-7----3----3-2-2-2-2-2-2-2-2-------------------|
G|-4----4-7----4----4-2-2-2-2-2-2-2-2-------------------|
D|-4----4-7----4----4-2-2-2-2-2-2-2-2-------------------|
A|-2----2-5----2----2-0-0-0-0-0-0-0-0-------------------|
E|------------------------------------------------------|




Chorus [not sure if this is right]

   b  b  b b b b  d  d  d d d d b  b  b b b b  d d a  a a
   m  m  m m m m                m  m  m m m m
e|-2--2--2-2-2-2----------------2--2--2-2-2-2------0--0-0--|
B|-3--3--3-3-3-3--7--7--7-7-7-7-3--3--3-3-3-3--7-7-2--2-2--|
G|-4--4--4-4-4-4--7--7--7-7-7-7-4--4--4-4-4-4--7-7-2--2-2--|
D|-4--4--4-4-4-4--7--7--7-7-7-7-4--4--4-4-4-4--7-7-2--2-2--| x 4
A|-2--2--2-2-2-2--5--5--5-5-5-5-2--2--2-2-2-2--5-5-0--0-0--|
E|---------------------------------------------------------|


Any Questions email js217@hotmail.com

Ellis
Comments