Fall Out Boy - Love Will Tear Us Apart Chords & Tabs

 

Love Will Tear Us Apart Chords & Tabs

Fall Out Boy Chords & Tabs

Version: 2 Type: Bass Tab 0 ratings
1 star 2 stars 3 stars 4 stars 5 stars
comments

Love Will Tear Us Apart Bass Tab

Hope you like it, feel free to e-mail me with changes or suggestions.  Thanx!!

Intro:   (no words)
G:-------------------------------------------------------------------------------------|
D:-------------------------------------------------------------------------------------|
A:-0-0-0-0-0-0-0-0--0-0-0-0-0-0-0-0--------5---2---0--------5---2---0------------------|
E:--------------------------------------------0-------------------0-----------------0--|

Verse 1- no bass
"When routine bites hard....."
[ Tab from: http://www.guitartabs.cc/tabs/f/fall_out_boy/love_will_tear_us_apart_btab_ver_2.html ]
Chorus:  (x5)
"Love, love will tear us apart"
G:-----------------------------------------------------------------------------------|
D:-----------------------------------------------------------------------------------|
A-----------------------------------2-2-2-2-2--0-0--0-0------------------------------|
E:--0-0-0-0-0-0--2-2-2-2-2-2---------------------------------------------------------|

Verse 2:  (x3)
"Why is this bedroom so cold"
G:--------------------|
D:--------------------|
A:-----5--2--0--------|
E:---0----------------|

Chorus (x5)

Pre-verse: (x2)
G:--------------------|
D:--------------------|
A:-----5--2--0--------|
E:---0----------------|

Verse 3: (x3)
"Do you cry out in your sleep"
G:---------------------|
D:---------------------|
A:---------2--0--------|
E:---0--2--------------|

Chorus until end
Comments