Fall Out Boy - Ive Got A Dark Alley And A Bad Idea That Says You Should Shut Your Mouth Summer Song Chords & Tabs

 

Ive Got A Dark Alley And A Bad Idea That Says You Should Shut Your Mouth Summer Song Chords & Tabs

Fall Out Boy Chords & Tabs

Version: 1 Type: Tab 0 ratings
1 star 2 stars 3 stars 4 stars 5 stars
comments

Ive Got A Dark Alley And A Bad Idea That Says You Should Shut Your Mouth Summer Song Tab

   
Song: I've Got a Dark Alley and a Bad Idea That Says You Should Shut Your Mouth (Summer Song)
Artist: Fall Out Boy
Album: From Under the Cork Tree
Track: 6
Tabbed By: Steve (http://andaugustleftscars.tripod.com/)

One of the best songs on this amazing album.  Very simple to play, too.  I came on here 
couldn't believe it wasn't tabbed

out yet and I was inspired to put it on here.  There's no way I'm putting any sort of 
pattern on here, I'll put the

chords in the right order and unless you're a complete moron you'll get it.  The second 
is pretty much just random

picking of the chords so I'm not tabbing that out either.

Tuning: Standard

Intro
e|-----|
b|-----|
g|-5-4-|
d|-5-5-|
a|-3-3-|
e|-----|

Verse (Joke me something...)
e|-----------------|
b|-----------------|
g|-5-5-5-5-5-5-4-3-|
d|-5-3-5-3-5-3-5-5-|
a|-3-3-3-3-3-3-5-5-|
e|-------------3-3-|

PreChorus (At trust and love...)
e|---------|
b|---------|
g|-5-5-4-3-|
d|-5-3-5-5-|
a|-3-3-5-5-|
e|-----3-3-|
[ Tab from: http://www.guitartabs.cc/tabs/f/fall_out_boy/ive_got_a_dark_alley_and_a_bad_idea_that_says_you_should_shut_your_mouth_summer_song_tab.html ]
Chorus (And the record...)
e|-----------------|
b|-----------------|
g|-5-5-5-5-5-5-5-4-|
d|-5-3-5-3-5-3-5-5-|
a|-0-0-0-0-0-0-3-3-|
e|-----------------|
(We can fake it...)
e|-------------3-|
b|-------------3-|
g|-5-5-5-5-5-5-4-|
d|-5-3-5-3-5-3-5-|
a|-0-0-0-0-3-3-5-|
e|-------------3-|


Verse (Put the doctor...)
e|-----------------|
b|-----------------|
g|-5-5-5-5-5-5-4-3-|
d|-5-3-5-3-5-3-5-5-|
a|-3-3-3-3-3-3-5-5-|
e|-------------3-3-|

PreChorus (I'm hopelessly hopeful...)
e|---------|
b|---------|
g|-5-5-4-3-|
d|-5-3-5-5-|
a|-3-3-5-5-|
e|-----3-3-|

Chorus (And the record...)
e|-----------------|
b|-----------------|
g|-5-5-5-5-5-5-5-4-|
d|-5-3-5-3-5-3-5-5-|
a|-0-0-0-0-0-0-3-3-|
e|-----------------|
(We can fake it...)
e|-------------3-|
b|-------------3-|
g|-5-5-5-5-5-5-4-|
d|-5-3-5-3-5-3-5-|
a|-0-0-0-0-3-3-5-|
e|-------------3-|

Outro (Everyone else around...)
e|---------|
b|---------|
g|-5-5-4-3-|
d|-5-3-5-5-|
a|-3-3-5-5-|
e|-----3-3-|

End On
e|---|
b|---|
g|-5-|
d|-5-|
a|-3-|
e|---|
Comments