Fall Out Boy - In This Diary Chords & Tabs

 

In This Diary Chords & Tabs

Fall Out Boy Chords & Tabs

Version: 1 Type: Tab 0 ratings
1 star 2 stars 3 stars 4 stars 5 stars
comments

In This Diary Tab

   
FALL OUT BOY
Atari's Cover! - In This Diary 
By:Andrew Mcshan(Guitarguyx182@aol.com)

Intro 
e-------------------------------------------------------------------| 
B-------------------------------------------------------------------| 
G-5-5-5-5-5-5-5-5--8-8-8-8--5-5-5-5--6-6-6-6--5-5--6-6-6-6-6-6-6-6--|
D-6-6-6-6-6-6-6-6--8-8-8-8--6-6-6-6--6-6-6-6--6-6--6-6-6-6-6-6-6-6--|
A-6-6-6-6-6-6-6-6--6-6-6-6--6-6-6-6--4-4-4-4--4-4--4-4-4-4-4-4-4-4--|
E-------------------------------------------------------------------| 

Verse 
(Guitar 1) 
e-------------------------------------------------------------------| 
B-------------------------------------------------------------------|
G-----------8-8-8-8-8-----------6-6-6-6-6-----------8-8-8-8-8-6-6-6-| 
D-3-3-3-3-3-8-8-8-8-8-6-6-6-6-6-6-6-6-6-6-3-3-3-3-3-8-8-8-8-8-6-6-6-| 
A-3-3-3-3-3-6-6-6-6-6-6-6-6-6-6-4-4-4-4-4-3-3-3-3-3-6-6-6-6-6-4-4-4-| 
E-1-1-1-1-1-----------4-4-4-4-4-----------1-1-1-1-1-----------------|
(Guitar 2)
e-------------------------------------------------------------------| 
B-------------------------------------------------------------------|
G-5---5---5---8---8---8---6---6---5---5---6---6---5---5-------------| 
D---6---6---6---6---6---6---6---6---6---6---6---6---6---6-----------| 
A-------------------------------------------------------------------| 
E-------------------------------------------------------------------| 

Pre Chorus
e------------------|
B------------------|
G---------6-6-6-6--|
D-8-8-8-8-6-6-6-6--|
A-8-8-8-8-4-4-4-4--|
E-6-6-6-6----------| 
[ Tab from: http://www.guitartabs.cc/tabs/f/fall_out_boy/in_this_diary_tab.html ]
Chorus 
e-------------------------------------------------------------------| 
B-------------------------------------------------------------------|
G-----------8-8-8-8-8-----------6-6-6-6-6-----------8-8-8-8-8-6-6-6-| 
D-3-3-3-3-3-8-8-8-8-8-6-6-6-6-6-6-6-6-6-6-3-3-3-3-3-8-8-8-8-8-6-6-6-| 
A-3-3-3-3-3-6-6-6-6-6-6-6-6-6-6-4-4-4-4-4-3-3-3-3-3-6-6-6-6-6-4-4-4-| 
E-1-1-1-1-1-----------4-4-4-4-4-----------1-1-1-1-1-----------------|

e-------------------------------------------------------------------| 
B-------------------------------------------------------------------|
G-----------8-8-8-8-8-----------6-6-6-6-6-----------8-8-8-8-8-8-8-8-| 
D-3-3-3-3-3-8-8-8-8-8-6-6-6-6-6-6-6-6-6-6-3-3-3-3-3-8-8-8-8-8-8-8-8-| 
A-3-3-3-3-3-6-6-6-6-6-6-6-6-6-6-4-4-4-4-4-3-3-3-3-3-6-6-6-6-6-6-6-6-| 
E-1-1-1-1-1-----------4-4-4-4-4-----------1-1-1-1-1-----------------|

e--------------------------------------------------|
B--------------------------------------------------|
G--6-6-6-6-6-5-5-5-5-6-6-6-6-6-6-5-5-5-5-5---------| 
D--6-6-6-6-6-6-6-6-6-6-6-6-6-6-6-6-6-6-6-6---------|
A------------6-6-6-6-6-----------6-6-6-6-6---------| 
E--------------------------------------------------|

Bridge 
e-------------------------------------------------|
B-------------------------------------------------|
G-6-6-6-5-5-5-5-8-8-8-8-5-5-5-5-6-6-6-6-----------|
D-6-6-6-6-6-6-6-8-8-8-8-6-6-6-6-6-6-6-6-----------|
A-4-4-4-6-6-6-6-6-6-6-6-6-6-6-6-4-4-4-4-----------|
E-------------------------------------------------|


On the Last Chorus Guitar 2 Does this
e-----------------------------------------------------------|
B-----------------------------------------------------------|
G-13-13-13-12-12-12-13-13-13-12-12-12-8-8-8-8-13-13-15-15-6-|
D-x--x--x--x--x--x--x--x--x--x--x--x--x-x-x-x-x--x--x--x--6-|
A-11-11-11-10-10-10-11-11-11-10-10-10-6-6-6-6-11-11-13-13-4-|
E-----------------------------------------------------------|
Comments