Fall Out Boy - Honorable Mention Chords & Tabs

 

Honorable Mention Chords & Tabs

Fall Out Boy Chords & Tabs

Version: 1 Type: Bass Tab 0 ratings
1 star 2 stars 3 stars 4 stars 5 stars
comments

Honorable Mention Bass Tab

Standard Tuning

Intro 2x
G ----------------------------------------------------------------------|
D ----------------------------------------------------------------------|
A -------------------1-1-1-1--1-1-1-1--5-5-5-5--5-5-5-5--1--1-1-1-1-1-1-|
E -1-1-1-1--1-1-1-1-----------------------------------------------------|

Verse Part 1 - 2x
G ---------------|
D ---------------|
A -----------1-1-|
E -1-1--3-3------|

Verse Part 2 - 2x
G -----------------------------------|
D -----------------------------------|
A ---------------------------1-1-1-1-|
E -1-1-1-1--1-1-1-1--3-3-3-3---------|

Pre Chorus
G ----------------------------------------------------------------------|
D ----------------------------------------------------------------------|
A -----3-3-3-3-3-3-3------3-3-3-3-3-3-3--5-5-5-5--5-5-5-5--1--1-1-1-1-1-|
E -1x-----------------1x------------------------------------------------|

G ----------------------------------------------------------------|
D ----------------------------------------------------------------|
A -----3-3-3-3-3-3------3-3-3-3-3-3--1-1--1-1-1--1-1-1--1-1-1--1~-|
E -1x---------------1x--------------------------------------------|

Chorus  3x
G -------------------------|
D -------------------------|
A ------1-1--0-0--5-5--3-3-|
E -1-1---------------------|
[ Tab from: http://www.guitartabs.cc/tabs/f/fall_out_boy/honorable_mention_btab.html ]
After Chorus
G -------|
D -------|
A ---1~-
E -------

Intro 2x

Verse 2
G I-----------------------------------------------------------------------|
D I------10------10------10-------10--------12-------12-------15-------15-|
A I-8-8-----8-8------8-8-----8-8------10-10----10-10----13-13----12-12----|
E I-----------------------------------------------------------------------|

Verse Part 2 - 2x
Pre Chorus
Chorus - 3x
After Chorus

Bridge
G ------------------------------------------------------------------------|
D ------------------------------------------------------------------------|
A -------------------1-1-1-1--1-1-1-1--0-0-0-0--0-0-0-0--5-5-5-5--5-5-5-5-|
E I1-1-1-1--1-1-1-1-------------------------------------------------------|

G ---------------------------------------------------------------|
D ---------------------------------------------------------------|
A ------------------1-1-1-1--1-1-1-1--0-0-0-0--0-0-0-0--5-5-5-5--|
E 1-1-1-1--1-1-1-1-----------------------------------------------|

G------------|
D------------|
A -----------|
E 5-5--5-5-5-|

Chorus - 3x

G --------------------------|
D --------------------------|
A -1-1--1-1-1--1-1-1--1-1-1-|
E --------------------------|

End Chorus-3x
G ------------------------------------|
D ------------------------------------|
A ----------1-1-1-1--0-0-0-0--5-5-3-3-|
E -1-1-1-1----------------------------|
Comments