Fall Out Boy - Homesick At Space Camp Chords & Tabs

 

Homesick At Space Camp Chords & Tabs

Fall Out Boy Chords & Tabs

Version: 3 Type: Tab 0 ratings
1 star 2 stars 3 stars 4 stars 5 stars
comments

Homesick At Space Camp Tab

   
Alright, I got tired of looking at tabs that aren't even close to what this song actually
is, so I sat down and listened to the song quite a few times and I'm pretty sure this is
about 99.9% correct. You'll have to listen to the song, obviously, to get down all the
strumming and stuff, but I think I did a pretty good job of it. And lastly, I know Fall
Out Boy has two guitarists, but me only being able to play one guitar at a time, I've
condensed it to a one guitar part and it sounds good, so...cheers

-------------------------------------------------------------------------------
		 Homesick at Space Camp - Fall Out Boy
-------------------------------------------------------------------------------
Tabbed by: Orc
Email: NytrisX@hotmail.com

Tuning: Drop D

Intro
e|---------------------------------------------------------------------------|
B|---------------------------------------------------------------------------|
G|---------------------------------------------------------------------------|
D|--4--7--4---6-7---12(4x)-14--12-0000000------4--7--4--6--7--12(4x)--14--0--|
A|--4--7--4---6-7---9------11--12-0000000------4--7--4--6--7--9-------11--0--|
D|--4--7--4---6 7---9------11--12-0000000------4--7--4--6--7--9-------11--0--|

Verse
e|---------------------------------------------------------------------------|2x
B|---------------------------------------------------------------------------|
G|-----------------------------------------14-14-14-13-9---------------------|
D|--4-4x(14x)----7-7x(14x)----12-12x(14x)--0--0--0--0--0---------------------|
A|--4-4x---------7-7x---------9--9x--------0--0--0--0--0---------------------|
D|--4-4x---------7-7x---------9--9x--------0--0--0--0--0---------------------|


e|---------------------------------------------------------------------------|
B|---------------------------------------------------------------------------|
G|-----------------------------7(6x)-----------------------------------------|
D|--4-4x(14x)----7-7x(6x)---0--x------4-4x(14x)--7--6--0--0x0x0x-------------|
A|--4-4x---------7-7x-------0--5------4-4x-------7--6--0--0x0x0x-------------|
D|--4-4x---------7-7x-------0---------4-4x-------7--6--0--0x0x0x-------------|
[ Tab from: http://www.guitartabs.cc/tabs/f/fall_out_boy/homesick_at_space_camp_tab_ver_3.html ]
Chorus
e|---------------------------------------------------------------------------|2x
B|---------------------------------------------------------------------------|
G|---------------------------------------------------------------------------|
D|--9-9-x-x-2-4-4-x-x-4-2-2-x-x-2-4-x-x-2-x-x--------------------------------|
A|--7-7-x-x-4-5-5-x-x-5-4-4-x-x-4-5-x-x-4-x-x--------------------------------|
D|--7-7-x-x-2-4-4-x-x-4-2-2-x-x-2-4-x-x-2-x-x--------------------------------|

e|---------------------------------------------------------------------------|
B|---------------------------------------------------------------------------|
G|-----------------------------7(6x)-----------------------------------------|
D|--4-4x(14x)----7-7x(6x)---0--x------4-4x(14x)--7--6--0---------------------|
A|--4-4x---------7-7x-------0--5------4-4x-------7--6--0---------------------|
D|--4-4x---------7-7x-------0---------4-4x-------7--6--0---------------------|

Bridge       5x
e|-0------|------------------------------------------------------------------|
B|---0-2--|---------0-----------0--------------------------------------------|
G|-------2|-----2-----2-----2-----2-----7-6-2-4-2-4-6-4-2--------------------|
D|--------|---2---2-----2-4---4-----4-0---0-0-0-0-0-0-0-0--------------------|
A|--------|------------------------------------------------------------------|
D|--------|------------------------------------------------------------------|

e|---------------------------------------------------------------------------|
B|--------0------------0-----------------------------------------------------|
G|----2-----2------2-----2------7--6--2--4--2--------------------------------|
D|--2----2-----2-4---4-----4-0x-0x-0--0--0--0--0x-0x-0x----------------------|
A|---------------------------0x-0x-------------0x-0x-0x----------------------|
D|---------------------------0x-0x-------------0x-0x-0x----------------------|

e|---------------------------------------------------------------------------|2x
B|----------5-7-7-x-10-5-5-x-x-7-7-------------------------------------------|
G|----------x-x-x-x--x-x-x-x-x-x-x-------------------------------------------|
D|--9-9-x-x-2-4-4-x--7-2-2-x-x-4-2-------------------------------------------|
A|--7-7-x-x-4-5-5-x--9-4-4-x-x-5-4-------------------------------------------|
D|--7-7-x-x------------------------------------------------------------------|

Order:
Intro
Verse
Chorus
Verse(Without palm mutes)
Chorus
Bridge
First half of Chorus til the end




| /  slide up
| \  slide down
| h  hammer-on
| p  pull-off
| ~  vibrato
| +  harmonic
| x  Mute note
===============================================================================
Comments