Fall Out Boy - Homesick At Space Camp Chords & Tabs

 

Homesick At Space Camp Chords & Tabs

Fall Out Boy Chords & Tabs

Version: 1 Type: Bass Tab 0 ratings
1 star 2 stars 3 stars 4 stars 5 stars
comments

Homesick At Space Camp Bass Tab

Intro
G --------------------------------------------|
D --------------------------------------------|
A ------------22--4-5555--------------22--4-5-|
E -22--4-5555-------------22--4-5555----------|

Verse 2x
G ----------------------------------------|
D ----------------------------------------|
A ---------------------22222222--55555555-|
E -22222222--55555555---------------------|

Chorus 2x
G --------------------|
D --------------------|
A -----------222--555-|
E -555--222-----------|
[ Tab from: http://www.guitartabs.cc/tabs/f/fall_out_boy/homesick_at_space_camp_btab.html ]
Post Chorus
G --------------------------------------|
D --------------------------------------|
A --------------------------------------|
E -22222222--55555555--22222222--5-4-2X-|

Verse

Verse Part 2
G --------------------------------------|
D --------------------------------------|
A ---------------------22222222-----4-5-|
E -22222222--55555555------------5------|

Chorus 2x
Post Chorus

Bridge 5x
G ---------------------------------------|
D ---------------------------------------|
A ---------------------55555555-55555555-|
E -55555555--22222222--------------------|

Bridge Ending
G ----------------------------|
D ----------------------------|
A -------------------55-555---|
E -5555555--22222222--------5-|

Chorus 6x

End
E -5~--5-5--5-
Comments