Fall Out Boy - Growing Up Chords & Tabs

 

Growing Up Chords & Tabs

Fall Out Boy Chords & Tabs

Version: 1 Type: Bass Tab 0 ratings
1 star 2 stars 3 stars 4 stars 5 stars
comments

Growing Up Bass Tab

Standard Tuning

Intro 2x
G -----------------------|
D -----------------2~-3~-|
A -------------3~--------|
E -555-333-33------------|

G ------------|--------------|--------|--------------|
D ------------|--------------|--------|--------------|
A ------------|---3--3-3-----|--------|----------3-5-|
E -555-333-33-|-1----------1-|-1-1--5-|-3--1-3-------|

Verse 1 - 3x
G ----------------------------------------------|
D ----------------------------------------------|
A -33333333----------------------------33333333-|
E ----------1-1-1-1-1-1-1-1--5555-3333----------|

Chorus 3x
G --------------------------|
D --------------------------|
A -3333---------------------|
E ------3333--5555--1-1-1-1-|

G ---------------------------|
D ---------------------------|
A -3333----------------------|
E ------3333--5555--1-0--1-0-|
[ Tab from: http://www.guitartabs.cc/tabs/f/fall_out_boy/growing_up_btab.html ]
Post Chorus 2x
G -------------------------|
D ----2~--3~---------------|
A -3~----------------------|
E ------------5555--333-33-|

Verse 1 - 2x

Verse 2
G -------------------------------------------------|
D -------------------------------------------------|
A -33333----------------------------------33333333-|
E -------5-3--1-1-1-1-1--33--5-5555--3333----------|

G -------------------------------------------------|
D -------------------------------------------------|
A -33333---------------------------------------3-5-|
E --------5-3--1-1-1-1-1--33--5-5555--333--1-3-----|

Chorus - 3x

G ------------------------------|
D ------------------------------|
A -3333-------------------------|
E ------3333--5555--1-0--1-0--1-|

Bridge - 4x
G ---------------|
D ---------------|
A -33------------|
E -----11--55-33-|

G ----------|
D ----------|
A ----3/----|
E ----------|
                        4x
G -----------------------|
D -----------------------|
A -3333------------------|
E ------1111--5555--3333-|

Outro
G ---------|
D ---------|
A --3~--3x-|
E ---------|
Comments