Fall Out Boy - Grand Theft Autumn Where Is Your Boy Chords & Tabs

 

Grand Theft Autumn Where Is Your Boy Chords & Tabs

Fall Out Boy Chords & Tabs

Version: 1 Type: Tab 2 ratings
1 star 2 stars 3 stars 4 stars 5 stars
comments

Grand Theft Autumn Where Is Your Boy Tab

   
Song: Grand Theft Autumn(Where Is Your Boy)
Band: Fall Out Boy
Album: Take This To Your Grave

NOTE: this is in drop-D tuning

Intro  (guitar 1)
E------------------|
B------------------|
G-6/7777-6/77-6/77-| 
D-x/xxxx-x/xx-x/xx-|  6x
A-4/5555-4/55-4/55-|
D------------------|

Guitar 2
E------------------------------------|
B------------------------------------|
G------------------44444444-22222222-| comes in on
D-0000000000000000-44444444-22222222-| 3rd time
A-0000000000000000-22222222-00000000-|
D-0000000000000000-------------------|

Verse  (guitar 1)
E---------------------------------------------------------------------|
B---------------------------------------------------------------------|
G-77-77---22-22---77-77---22-22---1111-1111---22-22--1111-1111--22-22-|
D-xx-xx---xx-xx---xx-xx---xx-xx---xxxx-xxxx---xx-xx--xxxx-xxxx--xx-xx-|
A-55-55---00-00---55-55---00-00----9-9--9-9---00-00---9-9--9-9--00-00-|
D---------------------------------------------------------------------|

Guitar 2
E---------------------------------------------------------------------|
B---------------------------------------------------------------------|
G-77--------------------------------77--------------------------------|
D-77----4-55----4-22----4-55-55--7--77------4-55----4-22------4-55-55-|
A-55----4-55----4-22----4-55-55--7--55------4-55----4-22------4-55-55-|
D-------4-55----4-22----4-55-55--7----------4-55----4-22------4-55-55-|
[ Tab from: http://www.guitartabs.cc/tabs/f/fall_out_boy/grand_theft_autumn_where_is_your_boy_tab.html ]
Prechorus   (both guitars)
E-------------------------------------------------------------|
B-------------------------------------------------------------|
G-------------------------------------------------------------|
D-55555555-77777777-00000000-44444444-55-55--77-77--00-00--44-|
A-55555555-77777777-00000000-44444444-55-55--77-77--00-00--44-|
D-55555555-77777777-00000000-44444444-55-55--77-77--00-00--44-|

Chorus (both guitars)
E-----------------------------------------------------|
B-----------------------------------------------------|
G-44--------------------------------------------------|
D-44-55-00-44-55-77-00-44-55-77-00000000-22222222/4h5-|
A-22-55-00-44-55-77-00-44-55-77-00000000-22222222/4h5-|
D----55-00-44-55-77-00-44-55-77-00000000-22222222/4h5-|

Intro
verse
prechorus
chorus

Breakdown
E------------------------------------|
B------------------------------------|
G------------------------------------|
D------77---7----77---7-------77---7-|  2x
A-55-5----5---55----5----5555----5---|
D------------------------------------|

then
E-------------------------------------|
B-------------------------------------|
G-------------------------------------|
D-99999999-77777777-00000000-55555555-| 4x
A-99999999-77777777-00000000-55555555-|
D-99999999-77777777-00000000-55555555-|

Post Bridge Chorus
E-------------------------------------------------------------------|
B-------------------------------------------------------------------|
G-44--------------------------7777-9999-----------------------------|
D-44-55-00-44-55-77-----------7777-9999-0000-5555-00000000-55555555-|
A-22-55-00-44-55-77-p A u s e-5555-7777-0000-5555-00000000-55555555-|
D----55-00-44-55-77---------------------0000-5555-00000000-55555555-|

Last Chorus
E-------------------------------------------------------------|
B-------------------------------------------------------------|
G-77----------------77----7777-----------------------------7x-|
D-77-55-00-44-55-77-77-44-7777-7777-00000000-22222222/4h5--7x-|
A-55-55-00-44-55-77-55-44-5555-7777-00000000-22222222/4h5--5x-|
D----55-00-44-55-77----44------7777-00000000-22222222/4h5-----|

Comments