Fall Out Boy - Grand Theft Autumn Where Is Your Boy Acoustic Chords & Tabs

 

Grand Theft Autumn Where Is Your Boy Acoustic Chords & Tabs

Fall Out Boy Chords & Tabs

Version: 1 Type: Tab 0 ratings
1 star 2 stars 3 stars 4 stars 5 stars
comments

Grand Theft Autumn Where Is Your Boy Acoustic Tab

None of the other TABs for this song seemed complete, this should cover it all.
Any changes or commets feel free to email.


Tuning: DADGBe


Intro Guitar 1
e|-------------------------------------------------------------------------|
B|-------------------------------------------------------------------------|
G|-6/7-7-7-6/7-7-7-6/7-7-7-6/7-7-7-----------------------------------------|
D|-x-x-x-x-x-x-x-x-x-x-x-x-x-x-x-x----repeat til lyrics start--------------|
A|-4/5-5-5-4/5-5-5-4/5-5-5-4/5-5-5-----------------------------------------|
D|-------------------------------------------------------------------------|

Guitar 2(Come in after 2 times of above Guitar 1 riff)
e|-----------------------------------------Little Lick---------------------|
B|-------------------------------------------------------------------------|
G|-7777777777777777-444444444-22222222---------7-7-------------------------|
D|-7777777777777777-444444444-22222222--------7-7-7------------------------|
A|-5555555555555555-222222222-00000002-------5-----55----------------------|
D|-------------------------------------------------------------------------|

**************************************************************************
Verse 1:
e|-----------------------------------------|after second time
B|-----------------------------------------|play this to lead
G|-----7-7-----7-7-----4-4-----7-7---------|into next riff
D|----7-7-7-7-7-7-7-7-4-4-4-4-7-7-7-7--x2--|555555|Palm   
A|---5-------------------------------------|555555|Mute
D|---------4-5-----4-2-----4-5-----7-------|555555|
                                                              Lead into next
e|--------------------------------------------------------------|riff Palm 
B|--------------------------------------------------------------|Mute
G|--------------------------------------------------------------|44444444|
D|-55555555--77777777--00000000--44444444---55-5~--77-7~--00-0~-|44444444|
A|-55555555--77777777--00000000--44444444---55-5~--77-7~--00-0~-|22222222|
D|-55555555--77777777--00000000--44444444---55-5~--77-7~--00-0~-|

**************************************************************************
chorus Guitar 1
e|-------------------------------------------------------------------------| 
B|-------------------------------------------------------------------------|
G|-44----------------------------------------------------------------------|
D|-44-55-00-44-55-77-00-44-55-77--00000000--22222222----5------------------|
A|-22-55-00-44-55-77-00-44-55-77--00000000--22222222----5------------------|
D|----55-00-44-55-77-00-44-55-77--00000000--22222222----5------------------|

Guitar 2
e|-------------------------------------------------------------------------|
B|-7-3-5-3-7-3-5-3-7-3-5-3-7-3-5-3-----------------------------------------|
G|-------------------------------------------------------------------------|
D|-------------------------------------------------------------------------|
A|-------------------------------------------------------------------------|
D|-------------------------------------------------------------------------|

Intro
e|-------------------------------------------------------------------------|
B|-------------------------------------------------------------------------|
G|-6/7-7-7-6/7-7-7-6/7-7-7-6/7-7-7-----------------------------------------|
D|-x-x-x-x-x-x-x-x-x-x-x-x-x-x-x-x-----------------------------------------|
A|-4/5-5-5-4/5-5-5-4/5-5-5-4/5-5-5-----------------------------------------|
D|-------------------------------------------------------------------------|

e|--------------------------------------------Litte Lick-------------------|
B|-------------------------------------------------------------------------|
G|-7777777777777777-444444444-222222------------7--------------------------|
D|-7777777777777777-444444444-222222-----------7---------------------------|
A|-5555555555555555-222222222-000000----------5----------------------------|
D|-------------------------------------------------------------------------|
*************************************************************************

Verse 2 Guitar 2 Palm Mute
e|------------------------------------|
B|------------------------------------|                       
G|---777777--777777--444444--777777---| x2
D|---777777--777777--444444--777777---|
A|---555555--555555--222222--555555---|
D|---------44555555442222224455555577-|
[ Tab from: http://www.guitartabs.cc/tabs/f/fall_out_boy/grand_theft_autumn_where_is_your_boy_acoustic_tab.html ]
Guitar 1 comes in the second time through
e|-------------------------------------------|
B|-------------------------------------------|Lead into
G|-----7-7-----7-7-----4-4-----7--7----------|next riff
D|----7-7-7-7-7-7-7-7-4-4-4-4-7--7-7-7-------|555555|
A|---5---------------------------------------|555555|
D|---------4-5-----4-2-----4-5------7--------|555555|

e|-------------------------------------------------------------------------|
B|-------------------------------------------------------------------------|
G|----------------------------------------------------------------------44-|
D|-55555555--77777777--00000000--44444444---55-5~--77-7~--00-0~-----4/5-44-|
A|-55555555--77777777--00000000--44444444---55-5~--77-7~--00-0~-----4/5-22-|
D|-55555555--77777777--00000000--44444444---55-5~--77-7~--00-0~-----4/5----|
**************************************************************************

chorus Guitar 1
e|-------------------------------------------------------------------------|
B|-------------------------------------------------------------------------|
G|-44----------------------------------------------------------------------|
D|-44-55-00-44-55-77-00-44-55-77--00000000--22222222----5~-----------------|
A|-22-55-00-44-55-77-00-44-55-77--00000000--22222222----5~-----------------|
D|----55-00-44-55-77-00-44-55-77--00000000--22222222----5~-----------------|

Guitar 2
e|-------------------------------------------------------------------------|
B|-7-3-5-3-7-3-5-3-7-3-5-3-7-3-5-3-----------------------------------------|
G|-------------------------------------------------------------------------|
D|-------------------------------------------------------------------------|
A|-------------------------------------------------------------------------|
D|-------------------------------------------------------------------------|
**************************************************************************

solo
e|-------------------------------------------------------------------------|
B|-------------------------------------------------------------------------|
G|----------7-------7-----------7-------------7-------7--------------------|
D|-------77------77---------7-7-----7------77------77---------77777777-----|
A|--55-5------55------5555-------55---55-5------55-------5555--------------|
D|-------------------------------------------------------------------------|

Bridge 4x
Guitar 1(Guitar 2 continues to play below riff)
e|-------------------------------------------------------------------------|
B|-------------------------------------------------------------------------|
G|-44444444--22222222------------------------------------------------------|
D|-44444444--22222222--00000000--55555555----------------------------------|
A|-22222222--00000000--00000000--55555555----------------------------------|
D|---------------------00000000--55555555----------------------------------|
Guitar 2
e|-------------------------------------------------------------------------|
B|-7-3-5-3-7-3-5-3-7-3-5-3-7-3-5-3-----------------------------------------|
G|-------------------------------------------------------------------------|
D|-------------------------------------------------------------------------|
A|-------------------------------------------------------------------------|
D|-------------------------------------------------------------------------|

**************************************************************************
post bridge chorus
e|-------------------------------------------------------------------------|
B|-------------------------------------------------------------------------|
G|-44----------------------------------------------------------------------|
D|-44-55-00-44-55-77--Pause--5555-7777-00000000-22222222-55555555----------|
A|-22-55-00-44-55-77---------5555-7777-00000000-22222222-55555555----------|
D|----55-00-44-55-77---------5555-7777-00000000-22222222-55555555----------|


Ending chorus Guitar 1
e|-------------------------------------------------------------------------|
B|-------------------------------------------------------------------------|
G|-44----------------------------------------------------------------------|
D|-44-55-000444555777000444555777-00000000-22222222----5--------0x---------|
A|-22-55-000444555777000444555777-00000000-22222222----5--------0x---------|
D|----55-000444555777000444555777-00000000-22222222----5--------0x---------|

Guitar 2
e|-------------------------------------------------------------------------|
B|-7-3-5-3-7-3-5-3-7-3-5-3-7-3-5-3-----------------------------------------|
G|-------------------------------------------------------------------------|
D|-------------------------------------------------------------------------|
A|-------------------------------------------------------------------------|
D|-------------------------------------------------------------------------|
Comments