Fall Out Boy - Grand Theft Autumn Chords & Tabs

 

Grand Theft Autumn Chords & Tabs

Fall Out Boy Chords & Tabs

Version: 3 Type: Tab 0 ratings
1 star 2 stars 3 stars 4 stars 5 stars
comments

Grand Theft Autumn Tab

   
-----------------------------------------------------------------------------
        Grand Theft Autumn/Where is Your Boy - Fall Out Boy
-----------------------------------------------------------------------------

Tabbed by:Steph
Email:xfckthesystmx@yahoo.com

Tuning: DADGBe

intro x6
1st verse x1
intro x1
chorus x1
intro x 4
2nd verse x1
chorus x1
solo x1
bridge x4
post bridge chorus x1
last chorus x1

intro   
e|-------------------------------------------------------------------------|
B|-------------------------------------------------------------------------|
G|----6/7777---6/7777----6/777---------------------------------------------|
D|----x-xxxx---x-xxxx----x-xxx---------------------------------------------|
A|----4/5555---4/5555----4/555---------------------------------------------|
D|-------------------------------------------------------------------------|

1st verse
e|-------------------------------------------------------------------------|
B|-------------------------------------------------------------------------|
G|-7--------------7--------------------------------------------------------|
D|-x--7------7----x--7-----7-----------------------------------------------|
A|-5--5---2--5----5--5--2--5-----------------------------------------------|
D|----5---2--5-------5--2--5-----------------------------------------------|

e|-------------------------------------------------------------------------|
B|-------------------------------------------------------------------------|
G|-------------------------------------------------------------------------|
D|-------------------------------------------------------------------------|
A|-55555555--77777777--00000000--44444444---55-55--77-77--00-00------------|
D|-55555555--77777777--00000000--44444444---55-55--77-77--00-00------------|

chorus
e|-------------------------------------------------------------------------|
B|-------------------------------------------------------------------------|
G|-------------------------------------------------------------------------|
D|-------------------------------------------------------------------------|
A|-99-55-00-44-55-77-00-44-55-77--00000000--22222222---5-------------------|
D|-99-55-00-44-55-77-00-44-55-77--00000000--22222222---5-------------------|
[ Tab from: http://www.guitartabs.cc/tabs/f/fall_out_boy/grand_theft_autumn_tab_ver_3.html ]
2nd verse
e|-------------------------------------------------------------------------|
B|-------------------------------------------------------------------------|
G|-7--------------7--------------------------------------------------------|
D|-x--7------7----x--7-----7-----------------------------------------------|
A|-5--5---2--5----5--5--2--5-----------------------------------------------|
D|----5---2--5-------5--2--5-----------------------------------------------|

e|-------------------------------------------------------------------------|
B|-------------------------------------------------------------------------|
G|-------------------------------------------------------------------------|
D|-------------------------------------------------------------------------|
A|-55555555--77777777--00000000--44444444---55-55--77-77--00-00--4-5/------|
D|-55555555--77777777--00000000--44444444---55-55--77-77--00-00--4-5/------|

solo
e|-------------------------------------------------------------------------|
B|-------------------------------------------------------------------------|
G|-------------------------------------------------------------------------|
D|-------77-7----77-7-------7-7-7---7------77-7----77-7-------77777777-----|
A|--55-5------55------5555-------55---55-5------55-------5555--------------|
D|-------------------------------------------------------------------------|

bridge
e|-------------------------------------------------------------------------|
B|-------------------------------------------------------------------------|
G|-------------------------------------------------------------------------|
D|-------------------------------------------------------------------------|
A|-99999999--77777777--00000000--55555555----------------------------------|
D|-99999999--77777777--00000000--55555555----------------------------------|
 
post bridge chorus
e|-------------------------------------------------------------------------|
B|-------------------------------------------------------------------------|
G|-------------------------------------------------------------------------|
D|-------------------------------------------------------------------------|
A|-99--55--00--44--55--77--5555-7777-00000000-22222222-55555555------------|
D|-99--55--00--44--55--77--5555-7777-00000000-22222222-55555555------------|

last chorus
e|-------------------------------------------------------------------------|
B|-------------------------------------------------------------------------|
G|-------------------------------------------------------------------------|
D|-------------------------------------------------------------------------|
A|-99-55-00-44-55-77-00-44-55-77--00000000--22222222---5----0--------------|
D|-99-55-00-44-55-77-00-44-55-77--00000000--22222222---5----0--------------|


| /  slide up
| \  slide down
| h  hammer-on
| p  pull-off
| ~  vibrato
| +  harmonic
| x  Mute note
=============================================================================
Comments