Fall Out Boy - Grand Theft Autumn Chords & Tabs

 

Grand Theft Autumn Chords & Tabs

Fall Out Boy Chords & Tabs

Version: 2 Type: Tab 0 ratings
1 star 2 stars 3 stars 4 stars 5 stars
comments

Grand Theft Autumn Tab

   
Fall Out Boy
Grand Theft Autumn/Where is Your Boy?
Tabbed by Kellen

Drop D Tuning

Intro
E|----
B|----
G|-6/7
D|-x-x   just mess around with this
A|-4/5
D|----

Verse
E|---------------------------------------------
B|---------------------------------------------
G|-77----------------------77------------------
D|-77-4-55-4-22-4-55-55-7--77-4-55-4-22-4-55-55
A|-55-4-55-4-22-4-55-55-7--55-4-55-4-22-4-55-55
D|----4-55-4-22-4-55-55-7-----4-55-4-22-4-55-55

Pre chorus #1 "you need him, I could be him..."
E|---------------------------------------------------------
B|---------------------------------------------------------
G|-77777777-99999999---------------------------------------
D|-77777777-99999999-00000000-55555555-55-55-77-77-00-00-0x
A|-55555555-77777777-00000000-55555555-55-55-77-77-00-00-0x
D|-------------------00000000-55555555-55-55-77-77-00-00-0x

Chorus
E|----------------------------------------------------
B|----------------------------------------------------
G|-44-------------------------------------------------
D|-44-55-00-44-55-77-00-44-55-77-00000000-22222222/4h5
A|-22-55-00-44-55-77-00-44-55-77-00000000-22222222/4h5
D|----55-00-44-55-77-00-44-55-77-00000000-22222222/4h5

Intro

Verse

Pre chorus #2
E|----------------------------------------------------------
B|----------------------------------------------------------
G|-77777777-99999999----------------------------------------
D|-77777777-99999999-00000000-55555555-55-55-77-77-00-00-5-5
A|-55555555-99999999-00000000-55555555-55-55-77-77-00-00-5-5
D|-------------------00000000-55555555-55-55-77-77-00-00-5-5

Chorus
[ Tab from: http://www.guitartabs.cc/tabs/f/fall_out_boy/grand_theft_autumn_tab_ver_2.html ]
Solo
E|-------------------------------------------------------------
B|------------------------------------------------------------- 
G|--11--9-------------11--9--------------11--9------9--11------  
D|----------12----------------12--12------------12---------12--   
A|---------------12--------------------------------------------    
D|-------------------------------------------------------------     

E|-------------------------------------------------------------         
B|-------------------------------------------------------------       
G|----------9--11--9---------9-------------9--11--11--9--------         
D|--12--12------------12--------12-----12----------------12----
A|------------------------12-----------------------------------
D|-------------------------------------------------------------     

E|-------------------------------------------------------------   
B|-------------------------------------------------------------  
G|-----------11--9--------------------------------------------- 
D|------------------12--12-------------------------------------
A|--12--10-----------------------------------------------------
D|-------------------------------------------------------------

Bridge 
E|------------------------------------
B|------------------------------------
G|-44444444-22222222------------------
D|-44444444-22222222-00000000-55555555  x4
A|-22222222-00000000-00000000-55555555
D|-------------------00000000-55555555

Post Bridge Chorus
E|------------------------------------------------------------------
B|------------------------------------------------------------------
G|-44--------------------------7777-9999----------------------------
D|-44-55-00-44-55-77-----------7777-9999-0000-5555-00000000-55555555
A|-22-55-00-44-55-77-p A u s e-5555-7777-0000-5555-00000000-55555555
D|----55-00-44-55-77---------------------0000-5555-00000000-55555555

Last Chorus
E|------------------------------------------------------------
B|------------------------------------------------------------
G|-77----------------77----7777-----------------------------7x
D|-77-55-00-44-55-77-77-44-7777-7777-00000000-22222222/4h5--7x
A|-55-55-00-44-55-77-55-44-5555-7777-00000000-22222222/4h5--5x
D|----55-00-44-55-77----44------7777-00000000-22222222/4h5----

And that's it, email me at kgator86@msn.com with comments or corrections
Fall Out Boy rocks
Comments