Fall Out Boy - Grand Theft Autumn Acoustic Chords & Tabs

 

Grand Theft Autumn Acoustic Chords & Tabs

Fall Out Boy Chords & Tabs

Version: 2 Type: Tab

Grand Theft Autumn Acoustic Tab


				Grand Theft Autumn (Acoustic)
					by
				   Fall Out Boy

---------------------------------------------------------------------------------------------------
Didn't see a decent tab for the acoustic since most them were just repeats of the band version
so i figured i would tab that one since there are some differences especially in the chords

Standard Tuning
Tabbed by Richey

Intro - Guitar 1
listen for strokes
e|-------------------------------------------------|
B|--2-3-3-3--2-3-3-3--2-3-3-3--2-3-3-3-------------|
G|--2--------2--------2--------2-------------------|
D|-------------------------------------------------|
A|-------------------------------------------------|
E|-------------------------------------------------|

Intro -  Guitar 2
listen for strokes
e|--2---------------------------------------------------|
B|--3------------2-3-2----------------------------------|
G|--2---4------2-------2--------------------------------|
D|--0---4----2-----------2------------------------------|
A|------2--0--------------------------------------------|
E|---------not sure of this part------------------------|

Verse 1 - picking
e|------------------------------------------------------|
B|------3-------------3------------3-----------3--------|
G|----2---2---------0---0--------0---0-------0---0------|
D|--0-------0-------------------------------------------|
A|--------------------------------------------------0---|
E|-------------2-3-------3-2-0--------0-2-3-------------|
[ Tab from: http://www.guitartabs.cc/tabs/f/fall_out_boy/grand_theft_autumn_acoustic_tab_ver_2.html ]
e|----------------------------------------------3------|
B|------3------------3------------3---------3-3-3------|
G|----2---2--------0---0--------0---0-------0-0-0------|
D|--0-------0-------------------------------0-0-0------|
A|--------------------------------------------2-2------|
E|------------2-3-------3-2-0--------0-2-3------3------|
                                           start strumming
Pre chorus
listen for strokes, play once
e|-3------2--3----3-----2----------------------------------|
B|-3---3--3--3----3--3--3----------------------------------|
G|-0---2--2--0----0--2--2----------------------------------|
D|-0---2--0--0----0--2--0----------------------------------|
A|-2---0-----x----2--0-------------------------------------|
E|-3---------2----3----------------------------------------|

chorus- you know the rhythm..same as normal, just classical chords
e|-----3--2--3--3-----2--3--3------2------3-3----------------|
B|-----3--3--3--3--3--3--3--3--3---3--3---3-3----------------|
G|--4--0--2--0--0--2--2--0--0--2---2--2---0-0----------------|
D|--4--0--0--0--0--2--0--0--0--2---0--2---0-0----------------|
A|--2--2-----x--2--0-----x--2--0------2---x-2----------------|
E|-----3-----2--3--------2--3---------0---2-3----------------|

and of guitar guitar 2 doing this over and over
e|-------------------------------------------------|
B|---7-----5-----7------5--------------------------|
G|------7-----7-----7------7-----------------------|
D|-------------------------------------------------|
A|-------------------------------------------------|
E|-------------------------------------------------|
repeat intro, verse, prechorus, chorus

Solo part- repeat a few times
e|-------------------------------------------------|
B|------------3-----------3------------------------|
G|----2--2--2--2--2--2--2---2----------------------|
D|--0--0--0-----0--0--0----------------------------|
A|-------------------------------------------------|
E|-------------------------------------------------|

interlude-guitar 1
e|-------------2----3-----------------------------------|
B|-------3-----3----3-----------------------------------|
G|--4----2-----2----0-----------------------------------|
D|--4----2-----0----0-----------------------------------|
A|--2----0----------2-----------------------------------|
E|------------------3-----------------------------------|
guitar does a little solo too..but mainly just this
e|-------------------------------------------------|
B|--7-----5----------------------------------------|
G|-----7----7--------------------------------------|
D|-------------------------------------------------|
A|-------------------------------------------------|
E|-------------------------------------------------|

repear chorus

thats about it...im not sure about all the B chords...they dont sound acoustic enough to me
but i cant find the write sound for them
so i'll just stick with the power chords