Fall Out Boy - Grand Theft Autumn Acoustic Chords & Tabs

 

Grand Theft Autumn Acoustic Chords & Tabs

Fall Out Boy Chords & Tabs

Version: 1 Type: Tab 0 ratings
1 star 2 stars 3 stars 4 stars 5 stars
comments

Grand Theft Autumn Acoustic Tab

this is not the version that they have recorded.  i made this one up myself but i think
it sounds pretty good...and ps-sorry it sucks.  this is my first tab ever

drop D tuning (DADGBe)

+ palm mute
~ let ring

*********************************************************************
Intro:
|-------------------------------------------------------|
|-------------------------------------------------------|
|---7-777-77-777-7-777-77-777---------------------------|
|---7-777-77-777-7-777-77-777-9-999-99-999-7-777-77-777-|
|---4-445-55-555-4-445-55-555-9-999-99-999-7-777-77-777-|
|-----------------------------9-999-99-999-7-777-77-777-|

*********************************************************************
Verse:
|-------------------------------------------------------------------|
|-------------------------------------------------------------------|
|-------7---7-----------7---7-----------4---4-----------7---7-------|
|-----7---7---7---7---7---7---7---7---4---4---4---4---7---7---7---7-|  x2
|---5---------------------------------------------------------------|
|---------------4---5-----------4---2-----------4---5-----------7---|

*********************************************************************
Pre-Chorus:
|-----------------------------------------------------|
|-----------------------------------------------------|
|-7-777-77-777-9-999-99-999---------------------------|
|-7-777-77-777-9-999-99-999-0-000-00-000-5-555-55-555-|
|-5-555-55-555-7-777-77-777-0-000-00-000-5-555-55-555-|
|---------------------------0-000-00-000-5-555-55-555-|

|-----------------------------------------------------|
|-----------------------------------------------------|
|-----------------------------------------------------|
|-5-5---5-5----7-7---7-7----0-0----0-0---0~~~~~~~~~~~-|
|-5-5---5-5----7-7---7-7----0-0----0-0---0~~~~~~~~~~~-|
|-5-5---5-5----7-7---7-7----0-0----0-0---0~~~~~~~~~~~-|
    +     +      +     +      +      +

**********************************************************************
Chorus 1:
|----------------------------------------------------------|
|----------------------------------------------------------|
|-4-4-4444-------------------------------------------------|
|-4-4-44445-5-55550-0-00004-4-44445-5-55557-7-77770-0-0000-|
|-2-2-22225-5-55550-0-00004-4-44445-5-55557-7-77770-0-0000-|
|---------5-5-55550-0-00004-4-44445-5-55557-7-77770-0-0000-|
[ Tab from: http://www.guitartabs.cc/tabs/f/fall_out_boy/grand_theft_autumn_acoustic_tab.html ]
|------------------------------------------------------------|
|------------------------------------------------------------|
|------------------------------------------------------------|
|-4-4-44445-5-55557-7-77770-0-0-0-0-0-0-0-2-2-2-2-2-2-4-5~~~-|
|-4-4-44445-5-55557-7-77770-0-0-0-0-0-0-0-2-2-2-2-2-2-4-5~~~-|
|-4-4-44445-5-55557-7-77770-0-0-0-0-0-0-0-2-2-2-2-2-2-4-5~~~-|

**********************************************************************

Intro
Verse
Pre-Chorus
Chorus 1

**********************************************************************
Bridge:
|-------------------       |-------------------------|
|-------------------       |-------------------------|
|---------7---------       |-4-   -2-   ---   ---   -|
|---7---7---7---7---  x8   |-4-x8 -2-x8 -0-x8 -5-x8 -|   x4
|-5---5-------------       |-2-   -0-   -0-   -5-   -|
|-------------0-----       |-------------0-----5-----|

**********************************************************************
Chorus 2:
|-----------------------------------------------------------|
|-----------------------------------------------------------|
|-4-4-4444--------------------------------------------------|
|-4-4-44445-5-55550-0-00004-4-44445-5-55557-7-77770~~~~~~~~-|
|-2-2-22225-5-55550-0-00004-4-44445-5-55557-7-77770~~~~~~~~-|
|---------5-5-55550-0-00004-4-44445-5-55557-7-77770~~~~~~~~-|

|-------------------------------------------------|
|-------------------------------------------------|
|-7-7-7-7-9-9-9-----------------------------------|
|-7-7-7-7-9-9-90-0-0-0-0-0-0-0-2-2-2-2-2-2-4-5~~~-|
|-5-5-5-5-7-7-70-0-0-0-0-0-0-0-2-2-2-2-2-2-4-5~~~-|
|--------------0-0-0-0-0-0-0-0-2-2-2-2-2-2-4-5~~~-|

***********************************************************************
Chorus 3:
|-----------------------------------------------------|
|-----------------------------------------------------|
|-4-4-------------------------------------------------|
|-4-4-----5-5-----0-0-----4-4-----5-5-----7-7-----0-0-|
|-2-2-----5-5-----0-0-----4-4-----5-5-----7-7-----0-0-|
|---------5-5-----0-0-----4-4-----5-5-----7-7-----0-0-|
    +       +       +       +       +       +       +

|------------------------------------------------------------|
|------------------------------------------------------------|
|------------------------------------------------------------|
|-4-4-----5-5-----7-7-----0-0-0-0-0-0-0-0-2-2-2-2-2-2-4-5~~~-|
|-4-4-----5-5-----7-7-----0-0-0-0-0-0-0-0-2-2-2-2-2-2-4-5~~~-|
|-4-4-----5-5-----7-7-----0-0-0-0-0-0-0-0-2-2-2-2-2-2-4-5~~~-|
    +       +       +

***********************************************************************
Outro:
|---
|---
|-7-
|-7-
|-5-
|---
  +

***********************************************************************

enjoy!
xo
Comments