Fall Out Boy - Get Busy Living Or Get Busy Dying Chords & Tabs

 

Get Busy Living Or Get Busy Dying Chords & Tabs

Fall Out Boy Chords & Tabs

Version: 2 Type: Tab

Get Busy Living Or Get Busy Dying Tab

-------------------------------------------------------------------------------
		Get Busy Living or Get Busy Dying - Fall Out Boy
-------------------------------------------------------------------------------
Tabbed by: Alan Bracewell
Email: kadence@gmail.com

This tab is based of of Casey's (angei_saviour@yahoo.com,
http://ultimate-guitar.com/tabs/f/fall_out_boy/get_busy_living_or_get_busy_dying_tab.htm) tab
which got me started
on tabbing this song.  He gave me permission to post the corrected tab, as long 
as I cite his work.  Thanks Casey! This is nearly perfect except for the guitar
solo.


Intro "This has been said so many times..."
E|---------------||
B|---------------||
G|----9--5-------||
D|-2--9--5--4--2-||
A|-2--7--3--4--2-||
E|-0--------2--0-|| (X2)

Verse "If you are the shores I am the waves..."
E|-------------------------------------------------||            
B|-------------------------------------------------||            
G|-4x-2x-------------4x-2x-------------------------||         
D|-4x-2x--4x-2x------4x-2x--4x---2x-4x-5x-7x-------||           
A|-2x-0x--4x-2x------2x-0x--4x---2x-4x-5x-7x-------||            
E|--------2x-0x-------------2x---0x-2x-3x-5x-------|| (X2)   

2nd Guitar (only on the 2nd time through) palm mute
e|---------------------------------------------------------------------------||
B|---------------------------------------------------------------------------||
G|--11--11--11--11--11--12--12--12--12----------------------------------------||
D|----13--13--13--13--13--13--13--13-----------------------------------------||(x2)
A|---------------------------------------------------------------------------||
E|---------------------------------------------------------------------------||


Pre-chorus "Your secret's out"
E |---------------||
B |---------------||
G |-5-------------||
D |-5---4-x-4-x-4-||
A |-3---4-x-4-x-4-||
E |-----2-x-2-x-2-||

[ Tab from: http://www.guitartabs.cc/tabs/f/fall_out_boy/get_busy_living_or_get_busy_dying_tab_ver_2.html ]
Chorus "I know this hurts, it was ment to..."
E |-----------------------------||
B |-----------------------------||
G |-5----------5--------9-------||
D |-5--5--9----5--5--9--9-------||
A |-3--5--9----3--5--9--7-------||
E |----3--7-------3--7----------|| (X2)


2nd Pre Chorus
Palm Mute
e|--------------------------------------||
B|--------------------------------------||
G|--4-4-4-2-------2-5-5-5-2-------2-----||
D|--4-4-4-2-4-4-4-2-5-5-5-2-5-5-5-2-----|| 
A|--2-2-2-0-4-4-4-0-3-3-3-0-5-5-5-0-----||
E|----------2-2-2-----------3-3-3-------|| (X2)

2nd time through play:

intro X2
verse X4
pre-chorus X1
chorus X2
pre-chorus X1


Bridge "I used to obsess over living..."
E |-----------------------||               
B |-----------------------||               
G |-----7x--5x--4x--------||            
D |-2x--7x--5x--4x--2x----||              
A |-2x--5x--3x--2x--2x----||              
E |-0x--------------0x----|| (X4)         


                               ^slowly release mute after second time^


bridge open(no mute) X2
chorus X2

Solo over chorus (way more complicated, but its something)
e|---------------------------------------------------------------------------|
B|---------------------------------------------------------------------------|
G|--11h12p11p9---------------12-------14-------------------------------------|
D|-------------12----9-----7--------9----------------------------------------|(x2)
A|---------------------------------------------------------------------------|
E|---------------------------------------------------------------------------|

pre-chorus X1
end on
E |----------------||
B |----------------||
G |----------------||
D |--2-------------||
A |--2-------------||
E |--0-------------||

Corrections, comments, requests, e-mail kadence@gmail.com.  This tab is nearly perfect,
just be aware that not ALL of the changes are exact, some changes take place in the 
middle of a riff. Just use your ear.