Fall Out Boy - Drugged Out Chords & Tabs

 

Drugged Out Chords & Tabs

Fall Out Boy Chords & Tabs

Version: 1 Type: Tab 0 ratings
1 star 2 stars 3 stars 4 stars 5 stars
comments

Drugged Out Tab

   
band: fall out boy
song: drugged out

Tabber: John Cukras
Email: riffreaper@yahoo.com

Tuning: Normal

Riff 1:       A                        B
E-------------------------------|----------------------------|
B-------------------------------|----------------------------|
G-------------------------------|----------------------------|
D-2--22-------------------------|-22-------------------------|
A-2--22-00-55-00-77-00-99-------|-22-00-55-00-44-00-33-------|
E-0--00-00-33-00-55-00-77-x's 3-|-00-00-33-00-22-00-11 x's 4-|
[ Tab from: http://www.guitartabs.cc/tabs/f/fall_out_boy/drugged_out_tab.html ]
Riff 2:
E-----------------------------------------------|
B-----------------------------------------------|
G-----------------------------------------------|
D-----------------------------------------------|
A-77777-55555-77777-55555-77777-55555-4444-3333-|
E-55555-33333-55555-33333-55555-33333-2222-1111-|

Riff 1: A x's 4 , B x's 4

Riff 2

Riff 3: Played under the solo.
E-----------------------------|
B-----------------------------|
G-----------------------------|
D-2----2----2-----------------|
A-2----2----2-----------------|
E-0-00-0-00-0-00-3-2-1 x's 24-|
pm  ..   ..   ..

Riff 1: B

Riff 2

Riff 1: A
Comments