Fall Out Boy - Dead On Arrival Chords & Tabs

 

Dead On Arrival Chords & Tabs

Fall Out Boy Chords & Tabs

Version: 2 Type: Tab 0 ratings
1 star 2 stars 3 stars 4 stars 5 stars
comments

Dead On Arrival Tab

fall out boy
dead on arrival
i graduated with the lead singer, i'm confident this is right
falloutboyrock.com
[ Tab from: http://www.guitartabs.cc/tabs/f/fall_out_boy/dead_on_arrival_tab_ver_2.html ]
intro:                             verse:
e -------------------------        e ----------------
b -------------------------        b ----------------
g ----------0h4h5p4p0------        g -5--7--9--------
d -3--7--5-----------------        d -5--7--9--3-----
a -3--7--5-----------------        a -3--5--7--3-----
e -1--5--3-----------------        e ----------1-----
                                               *
prechorus:            chorus:
e -----------        e -------------------
b -----------        b -------------------
g -5--7------        g -5-----------------
d -5--7------        d -5--5--7--3--7--5--
a -3--5------        a -3--5--7--3--7--5--
e -----------        e ----3--5--1--5--3--
Comments