Fall Out Boy - Dance, Dance Chords & Tabs

 

Dance, Dance Chords & Tabs

Fall Out Boy Chords & Tabs

Version: 2 Type: Tab 2 ratings
1 star 2 stars 3 stars 4 stars 5 stars
comments

Dance, Dance Tab

Song: Dance, Dance
Artist: Fall Out Boy
Tabbed By: tabmaster73


                                                                             
e|---------------------------------------------------------------------|
B|---------------------------------------------------------------------|
G|--4--4--7----0--0--7-------------------------------------------------|    X6
D|--x--x--x----x--x--x-------------------------------------------------|
A|--2--2--5----0--0--5-------------------------------------------------|
D|---------------------------------------------------------------------|


e|---------------------------------------------------------------------|
B|---------------------------------------------------------------------|
G|---------------------------------------------------------------------|    X4
D|--------0--0--4--4--2--4---------------------------------------------|
A|--2--4---------------------------------------------------------------|
D|---------------------------------------------------------------------|


e|---------------------------------------------------------------------|
B|---------------------------------------------------------------------|
G|--12--11--9---7---9---11---------------------------------------------|    X4
D|--x---x---x---x---x---x----------------------------------------------|
A|--10--9---7---5---7---9----------------------------------------------|
D|---------------------------------------------------------------------|


e|---------------------------------------------------------------------|
B|---------------------------------------------------------------------|
G|---------------------------------------------------------------------|    X1
D|--11--9-----11--9-----12---------------------------------------------|
A|---------9---------9------9------------------------------------------|
D|---------------------------------------------------------------------|


e|---------------------------------------------------------------------|
B|---------------------------------------------------------------------|
G|--9-9-9--7-----9-9--6-7-9--------------------------------------------|    X4
D|--9-9-9--7--7--9-9--6-7-9--------------------------------------------|
A|--7-7-7--5--7--7-7--4-5-7--------------------------------------------|
D|------------5--------------------------------------------------------|

[ Tab from: http://www.guitartabs.cc/tabs/f/fall_out_boy/dance_dance_tab_ver_2.html ]
e|---------------------------------------------------------------------|
B|---------------------------------------------------------------------|
G|--4--4--7----0--0--7-------------------------------------------------|    X4
D|--x--x--x----x--x--x-------------------------------------------------|
A|--2--2--5----0--0--5-------------------------------------------------|
D|---------------------------------------------------------------------|


e|---------------------------------------------------------------------|
B|---------------------------------------------------------------------|
G|---------------------------------------------------------------------|    X4
D|--------0--0--4--4--2--4---------------------------------------------|
A|--2--4---------------------------------------------------------------|
D|---------------------------------------------------------------------|

e|---------------------------------------------------------------------|
B|---------------------------------------------------------------------|
G|--6--6--7----0--0--7-------------------------------------------------|    X1
D|--x--x--x----x--x--x-------------------------------------------------|
A|--4--4--5----0--0--5-------------------------------------------------|
D|---------------------------------------------------------------------|


e|---------------------------------------------------------------------|
B|---------------------------------------------------------------------|
G|--9-9-9--7-----9-9--6-7-9--------------------------------------------|    X4
D|--9-9-9--7--7--9-9--6-7-9--------------------------------------------|
A|--7-7-7--5--7--7-7--4-5-7--------------------------------------------|
D|------------5--------------------------------------------------------|


e|---------------------------------------------------------------------|
B|---------------------------------------------------------------------|
G|--4--7--7--9---------------------------------------------------------|    X2
D|--4--6--7--9---------------------------------------------------------|
A|--2--4--5--7---------------------------------------------------------|
D|---------------------------------------------------------------------|


e|---------------------------------------------------------------------|
B|---------------------------------------------------------------------|
G|---------------------------------------------------------------------|    X4
D|--------0--0--4--4--2--4---------------------------------------------|
A|--2--4---------------------------------------------------------------|
D|---------------------------------------------------------------------|


listen to the song for timing and stuff
questions & comments email me shortlilshizzle101@msn.com
Comments