Fall Out Boy - Dance, Dance Chords & Tabs

 

Dance, Dance Chords & Tabs

Fall Out Boy Chords & Tabs

Version: 3 Type: Bass Tab

Dance, Dance Bass Tab

   
Dance, Dance
By Fall Out Boy
Standard Tuning

Tabbed by TheJew72 for Ultimate-Guitar.com


Intro/verse - x6
G|----------------|----------------|
D|-----0~--0------|-----0~--0------|
A|2-2--------2--0-|-----------2--0-|
E|----------------|3-3-------------|

pre-chorus - x2
G|----------------|----------------|
D|--------0-0-0-0-|--------0-0-0-0-|
A|2-2-2-2---------|----------------|
E|----------------|3-3-3-3---------|

Chorus - x4
G|----------------|----------------|
D|--------0-0-0-0-|----------------|
A|2-2-2-2---------|----------------|
E|----------------|3-3-3-3-2-2-2-2-|

Intro x2
G|----------------|----------------|
D|-----0~--0------|-----0~--0------|
A|2-2--------2--0-|-----------2--0-|
E|----------------|3-3-------------|

*pause*

This thing x1
G|----------------|----------------|----------------|
D|-----0~--0------|-----0~--0------|-----0~--0------|
A|-----------2--0-|2-2--------2--0-|-----------2--0-|
E|3-3-------------|----------------|3-3-------------|
[ Tab from: http://www.guitartabs.cc/tabs/f/fall_out_boy/dance_dance_btab_ver_3.html ]
Pre-Chorus - x2
G|----------------|----------------|
D|--------0-0-0-0-|--------0-0-0-0-|
A|2-2-2-2---------|----------------|
E|----------------|3-3-3-3---------|

Intro/verse x1
G|----------------|----------------|
D|-----0~--0------|-----0~--0------|
A|2-2--------2--0-|-----------2--0-|
E|----------------|3-3-------------|

*pause*

Chorus - x4
G|----------------|----------------|
D|--------0-0-0-0-|----------------|
A|2-2-2-2---------|----------------|
E|----------------|3-3-3-3-2-2-2-2-|

Bridge - x3
G|----------------|----------------|
D|----------------|----------------|
A|2222222200000000|----------------|
E|----------------|2222222233333333|

Build Up - x1
G|----------------|
D|----------------|
A|9999999999999999|
E|----------------|

Chorus - x6
G|----------------|----------------|
D|--------0-0-0-0-|----------------|
A|2-2-2-2---------|----------------|
E|----------------|3-3-3-3-2-2-2-2-|

Intro/verse - x4
G|----------------|----------------|
D|-----0~--0------|-----0~--0------|
A|2-2--------2--0-|-----------2--0-|
E|----------------|3-3-------------|

That's it, I think playing it this way is easier than any others...and sounds better too.