Fall Out Boy - Dance, Dance Chords & Tabs

 

Dance, Dance Chords & Tabs

Fall Out Boy Chords & Tabs

Version: 1 Type: Bass Tab 1 rating
1 star 2 stars 3 stars 4 stars 5 stars
comments

Dance, Dance Bass Tab

Standard Tuning

0:04 Intro - 6x
G|---------------------------------|
D|---------------------------------|
A|--2--2-5~-5---------5~-5---------|
E|-----------55--3--3-----55-------|

Pre Chorus - 2x
G|---------------------------------|
D|---------------------------------|
A|--2222-55--------55--------------|
E|---------55-3333---55------------|

Chorus - 4x
G|---------------------------------|
D|---------------------------------|
A|--2222-5555--------00------------|
E|------------3333-22--------------|
[ Tab from: http://www.guitartabs.cc/tabs/f/fall_out_boy/dance_dance_btab.html ]
Intro - 2x
 |pause|
then..
G|--------------------------------------|
D|--------------------------------------|
A|------5~-5---2--2-5~-5--------5~-5----|
E|-3--3-----55----------55-3--3-----55--|

Pre Chorus - 2x

G|---------------------------------|
D|---------------------------------|
A|--2222-5~-5---------5~-5---------|
E|-----------55--3333-----55-------| 
 
|rest|

Chorus - 4x

Bridge - 3x
G|-------------------------------------|
D|-------------------------------------|
A|-22222222-00000000-------------------|
E|-------------------22222222-33333333-|

G|---------------------------------|
D|---------------------------------|
A|-9999999999999999----------------|
E|---------------------------------|

Chorus - 6x
Intro - 4x
Comments