Fall Out Boy - Chicago Is So Two Years Ago Chords & Tabs

 

Chicago Is So Two Years Ago Chords & Tabs

Fall Out Boy Chords & Tabs

Version: 1 Type: Tab 2 ratings
1 star 2 stars 3 stars 4 stars 5 stars
comments

Chicago Is So Two Years Ago Tab

   
Song: Chicago Is So Two Years Ago
Band: Fall Out Boy
Album: Take This To Your Grave

Intro

Guitar 1
E---------------------|
B--------------5------|
G--5-4-------7---5----| 
D------5--------------| 2x
A---------------------|
E---------------------|

Guitar 2
E---------------------|
B---------------------|
G---------------------|
D-3333-5555-2222-3333-| 2x
A-3333-5555-2222-3333-|
E-1111-3333-0000-1111-|

Verse (both guitars)
E-------------------|
B-------------------|
G---5--------5------|
D-3-5-5555-2-5-3333-| 4x
A-3-3-5555-2-3-3333-|
E-1---3333-0---1111-|
pm     ...      ...

prechorus

Guitar 1
E-------------------------------------------------------------------------------|
B-------------------------------------------------------------------------------|
G-------------------------------------------------------------------------------|
D-3333-2222-5555-7777-3333-2222-5555-7777-101010101010-1212-101010101010101010--|
A-3333-2222-5555-7777-3333-2222-5555-7777---------------------------------------|
E-1111-0000-3333-5555-1111-0000-3333-5555---------------------------------------|
pm..................................      .............................
[ Tab from: http://www.guitartabs.cc/tabs/f/fall_out_boy/chicago_is_so_two_years_ago_tab.html ]
Guitar 2
E--------------------------------------------------------------------------------|
B--------------------------------------------------------------------------------|
G-----------------------------------------------------------------------55555555-|
D-3333-2222-5555-7777-3333-2222-5555-7777-3333-2222-5555-7777-3333-2222-55555555-|
A-3333-2222-5555-7777-3333-2222-5555-7777-3333-2222-5555-7777-3333-2222-33333333-|
E-1111-0000-3333-5555-1111-0000-3333-5555-1111-0000-3333-5555-1111-0000----------|
pm..................................      .............................

Chorus (both guitars)
E------------------------------------------------------------------------------------------|
B------------------------------------------------------------------------------------------|
G------55-5------77-7------44-4----------------55-5------77-7-------44xx-------------------|
D-77-7-55-5-33-3-77-7-77-7-55-5-33-3-33-3-77-7-55-5-33-3-77-7-77xx--55xx--3333333333333333-|
A-77-7-33-3-33-3-55-5-77-7-22-2-33-3-33-3-77-7-33-3-33-3-55-5-77xx--22xx--3333333333333333-|
E-55-5------11-1------55-5------11-1-11-1-55-5------11-1------55xx--------1111111111111111-|

verse
prechorus
chorus

Breakdown (here it is all vocals)
when he says "pickup" during breakdown hit:
E---|
B---|
G---|
D-3-|
A-3-|
E-1-|

then play chorus 4x
Comments