Fall Out Boy - Champagne For My Real Friends Real Pain For My Sham Friends Chords & Tabs

 

Champagne For My Real Friends Real Pain For My Sham Friends Chords & Tabs

Fall Out Boy Chords & Tabs

Version: 2 Type: Tab 0 ratings
1 star 2 stars 3 stars 4 stars 5 stars
comments

Champagne For My Real Friends Real Pain For My Sham Friends Tab

Tabbed By Abe
e-mail: skullprototype@yahoo.com

Key Legend
x mute
/\ slide back and forth

Heres The intro to Track 9 of Fall Out Boy's new cd

e-----------77---------77--------|
B----33-55------33-55------7/8\7-| <--4 times
G--------------------------------|
D--------------------------------|
A--------------------------------|
E--------------------------------|


e|--------------------------------------|
B|--------------------------------------|
G|--55-55-5--55-55-5--44-44-4--55-55-5--|
D|--xx-xx-x--xx-xx-x--xx-xx-x--xx-xx-x--| <--2 times
A|--xx-xx-x--55-55-5--xx-xx-x--xx-xx-x--|
E|--55-55-5-----------33-33-3--55-55-5--|
[ Tab from: http://www.guitartabs.cc/tabs/f/fall_out_boy/champagne_for_my_real_friends_real_pain_for_my_sham_friends_tab_ver_2.html ]
e|--------------------------------------|
B|--------------------------------------|  
G|--66-66-6--55-55-5--44-44-4--55-55-5--|
D|--xx-xx-x--xx-xx-x--xx-xx-x--xx-xx-x--|
A|--xx-xx-x--55-55-5--xx-xx-x--55-55-5--|
E|--55-55-5-----------33-33-3-----------|

e|--------------------------------------|
B|--------------------------------------|
G|--55-55-5--55-55-5--44-44-4--55-55-5--|
D|--xx-xx-x--xx-xx-x--xx-xx-x--xx-xx-x--| 
A|--xx-xx-x--55-55-5--xx-xx-x--xx-xx-x--|
E|--55-55-5-----------33-33-3--55-55-5--|

e|--------------------------------------|
B|--------------------------------------|  
G|--66-66-6--55-55-5--44-44-4--55-55-5--|
D|--xx-xx-x--xx-xx-x--xx-xx-x--xx-xx-x--|
A|--xx-xx-x--55-55-5--xx-xx-x--55-55-5--|
E|--55-55-5-----------33-33-3-----------|
Comments