Fall Out Boy - Champagne For My Real Friends Real Pain For My Sham Friends Chords & Tabs

 

Champagne For My Real Friends Real Pain For My Sham Friends Chords & Tabs

Fall Out Boy Chords & Tabs

Version: 1 Type: Tab 0 ratings
1 star 2 stars 3 stars 4 stars 5 stars
comments

Champagne For My Real Friends Real Pain For My Sham Friends Tab

---------------------------------------------------
	"Champagne for My Real Friends, 
	Real Pain for My Cham Friends"
		     - Fall Out Boy
---------------------------------------------------
Tabbed by: Justin RiRaY
Email: Pakman7JR@hotmail.com       AIM: BeatPwner

Tuning: eBGDAE


     INTRO
 
e|--------77-------77----------|\
B|--33-55----33-55----7/8\7----| X4
G|-----------------------------|/
D|-----------------------------|
A|-----------------------------|
E|-----------------------------|

[ Tab from: http://www.guitartabs.cc/tabs/f/fall_out_boy/champagne_for_my_real_friends_real_pain_for_my_sham_friends_tab.html ]
     VERSE
 
e|--------------------------------------|
B|--------------------------------------|
G|--55-55-5--55-55-5--44-44-4--55-55-5--|
D|--------------------------------------|\
A|-----------55-55-5-----------55-55-5--|
E|--55-55-5-----------33-33-3-----------|
 
e|--------------------------------------| \
B|--------------------------------------|
G|--55-55-5--55-55-5--44-44-4--55-55-5--|
D|--------------------------------------|
A|-----------55-55-5-----------55-55-5--|  \
E|--55-55-5-----------33-33-3-----------|
                                            X 2
e|--------------------------------------|
B|--------------------------------------|  /
G|--66-66-6--55-55-5--44-44-4--55-55-5--|
D|--------------------------------------|
A|-----------55-55-5-----------55-55-5--|
E|--55-55-5-----------33-33-3-----------| /
 
e|--------------------------------------|
B|--------------------------------------|
G|--55-55-5--55-55-5--4-4-4-4-4-4-4-4-4-|/
D|--------------------------------------|
A|-----------55-55-5--------------------|
E|--55-55-5-----------3-3-3-3-3-3-3-3-3-|

sorry about that last slide on the intro, I just mistabbed it.
Comments