Fall Out Boy - Calm Before The Storm Chords & Tabs

 

Calm Before The Storm Chords & Tabs

Fall Out Boy Chords & Tabs

Version: 1 Type: Bass Tab 0 ratings
1 star 2 stars 3 stars 4 stars 5 stars
comments

Calm Before The Storm Bass Tab

Standard Tuning

Intro
G |---------|   
D |---------|                           
A |-5~---5x-| 
E |---------|

Verse 1 - 2x
G |------------------------|-----------------------------------|
D |------------------------|-----------------------------------|
A |------------------------|-----------------------2-4-2-------|
E |-5555--0000--2222--0000-|-5555--4444--2222--2-4-------4-2-4-|

Chorus 3x
G |-----------------------------|
D |-------7------11------9------|
A |-55555---5/99----9\77---7\---|
E |-----------------------------|

Chorus Ending
G |-----------------------------|
D |-------7------11---------7-9-|
A |555555---5/99----9--7-9------|
E |-----------------------------|

Post Chorus - 2x
G |---------------------------------|
D |---------------------------------|
A |---------------------------------|
E |-55-55--00-00--22-22--5555--0000-|
[ Tab from: http://www.guitartabs.cc/tabs/f/fall_out_boy/calm_before_the_storm_btab.html ]
Verse 2 - 4x
G |-----------------------|
D |-----------------------|
A |------------55-44-2222-|
E |-5555--2222------------|

Verse 1 - 2x
Chorus - 3x
Chorus Ending
Post Chorus - 2x
                    3x
G |---------------------|
D |---------------------|
A |-55555555------------|
E |----------2222--0000-|

Then
G |-----------|
D |-----------|
A |-55555555--|
E |-----------|

Bridge 4x different rythym
G |-----------------------------------|
D |-----------------------------------|
A |-5-5-5-5-5-5-5-5-------------------|
E |------------------2-2-2-2--0-0-0-0-|

G |----------|
D |----------|
A |----------|
E |----5~----|

Bridge
G |---------------------|
D |---------------------|
A |---------------------|
E |-22222222--5555-0000-|

G |---------------------|
D |---------------------|  x3
A |---------------------|
E |-55555555--00000000--|

Outro
G |----------------------|
D |----------------------|
A |----------------------|
E |-55555555--5~--0~--5~-|

thanks, please rate it after you learn it
Comments