Fall Out Boy - 7 Minutes In Heaven (atavan Halen) Chords & Tabs

 

7 Minutes In Heaven (atavan Halen) Chords & Tabs

Fall Out Boy Chords & Tabs

Version: 2 Type: Tab 0 ratings
1 star 2 stars 3 stars 4 stars 5 stars
comments

7 Minutes In Heaven (atavan Halen) Tab

Artist: Fall Out Boy	
Song: 7 Minutes In Heaven (Atavan Halen)
Tuning: EADGBe 

Tabbed By: Stephen Adams 

*: palm mute
h: hammer on 
/: slide
\: slide


Intro Pt. 1
e|----------------------------------------------------|
B|----------------------------------------------------|
G|-9-99-8-88-6-66-9-99-8-88-6-------------------------|
D|-9-99-9-99-9-99-9-99-9-99-9-------------------------|x2
A|----------------------------------------------------|
E|----------------------------------------------------|
     **   **   **   **   **


Intro Pt. 2 Lead
e|----------------------------------------------------|
B|----------------------------------------------------|
G|-1111111--88--6666--44--1111111--8888--66--6/8\6----|
D|-x-x-x-x--xx--xxxx--xx--x-x-x-x--xxxx--xx--x/x\x----|x2
A|-9-9-9-9--66--4444--22--9-9-9-9--6666--44--4/6\4----|
E|----------------------------------------------------|


Intro Pt. 2 Rhythm 
e|----------------------------------------------------|
B|----------------------------------------------------|
G|--------------44------------------------------------|
D|-6666-22-4444-44-6666-2222-44444444-----------------|x2
A|-6666-22-4444-22-6666-2222-44444444-----------------|
E|-4444-00-2222----4444-0000-22222222-----------------|


Verse 1 Rhythm 
e|----------------------------------------------------|
B|----------------------------------------------------|
G|------------44-4------------------44-4--------------|
D|-66-6-------44-4-x4----22-2-------44-4-x4-----------|x2
A|-66-6-x4----22-2-------22-2-x4----22-2--------------|
E|-44-4------------------00-0-------------------------|              
   **         **         **         **


Verse 1 Lead
e|----------------------------------------------------|
B|----------------------------------------------------|
G|-9-99-8-88-6-66-9-99-8-88-6-------------------------|
D|-9-99-9-99-9-99-9-99-9-99-9-------------------------|
A|----------------------------------------------------|
E|----------------------------------------------------|
     **   **   **   **   **


Pre Chorus 
e|----------------------------------------------------|
B|----------------------------------------------------|
G|--------------44------------------------------------|
D|-6666-22-4444-44-6666-2222-44444444-----------------|x2
A|-6666-22-4444-22-6666-2222-44444444-----------------|
E|-4444-00-2222----4444-0000-22222222-----------------|


Chorus 
e|----------------------------------------------------|
B|----------------------------------------------------|
G|-44-------------------------------------------------|
D|-44-4-22-4-66-4-22-4--------------------------------|x4
A|-22-4-22-4-66-4-22-4--------------------------------|
E|----2-00-2-44-2-00-2--------------------------------|

[ Tab from: http://www.guitartabs.cc/tabs/f/fall_out_boy/7_minutes_in_heaven_atavan_halen_tab_ver_2.html ]
Verse 2 Lead
e|----------------------------------------------------|
B|----------------------------------------------------|
G|-9-99-8-88-6-66-9-99-8-88-6-------------------------|
D|-9-99-9-99-9-99-9-99-9-99-9-------------------------|x8
A|----------------------------------------------------|
E|----------------------------------------------------|
     **   **   **   **   **


Verse 2 Rhythm "I'm having another episode..."
e|----------------------------------------------------|
B|----------------------------------------------------|
G|------------44-4------------------4444444444444444--|
D|-66-6-------44-4-x4----22-2-------4444444444444444--|
A|-66-6-x4----22-2-------22-2-x4----2222222222222222--|
E|-44-4------------------00-0-------------------------| 
   **         **         **         ****************      


Bridge Rhythm "Da Da Da..."
e|----------------------------------------------------|
B|----------------------------------------------------|
G|----------6-----------------4-----------------------|
D|-6--------6-x16----2--------4-x16-------------------|x2
A|-6-x16----4--------2-x16----2-----------------------|
E|-4-----------------0--------------------------------|              
   *        *        *        * 


Bridge Lead
e|----------------------------------------------------|
B|----------------------------------------------------|
G|-9-99-8-88-6-66-9-99-8-88-6-------------------------|
D|-9-99-9-99-9-99-9-99-9-99-9-------------------------|x4
A|----------------------------------------------------|
E|----------------------------------------------------|
     **   **   **   **   ** 


Bridge Cont. "I keep telling..."
e|----------------------------------------------------|
B|----------------------------------------------------|
G|----------------------------------------------------|
D|-66----44----6666-2222-4444-------------------------|
A|-66----44----6666-2222-4444-------------------------|
E|-44----22----4444-0000-2222-------------------------|


Solo
e|-----------------------------------------------------------------|
B|-----------------------------------------------------------------|
G|-----------------------------------------------------------------|
D|-11-11h13-11\9-11h13-11\9-11h13-11\9-----11-11h13-11\9-11h13-11--|x2
A|-------------------------------------9---------------------------|
E|-----------------------------------------------------------------|


Ending (Acoustic)
e|----------------------------------------------------|
B|----------------------------------------------------|
G|-44-------------------44----------------------------|
D|-44-4-22-4-66-4-22-4--44-4-22-4-66-4-2--------------|
A|-22-4-22-4-66-4-22-4--22-4-22-4-66-4-2--------------|
E|----2-00-2-44-2-00-2-----2-00-2-44-2-0--------------|


Order
Intro pt. 1 
Intro pt. 2 
Verse 1 
Pre Chorus
Chorus 
Intro pt. 2
Verse 2 
Pre Chorus 
Chorus 
Bridge 
Bridge Cont.
Pre Chorus
Pre Chorus w/ Solo
Ending


pretty easy. sweet song. have fun.
Comments