Falconhead - Down The Drain Chords & Tabs

 

Down The Drain Chords & Tabs

Falconhead Chords & Tabs

Version: 1 Type: Bass Tab 0 ratings
1 star 2 stars 3 stars 4 stars 5 stars
comments

Down The Drain Bass Tab

Falconhead - Down The Drain
Evolver32 (just1_teaspoon@yahoo.com)


I know I usually do guitar, but this song has really easy bass.

let ring= ~

VERSE
G-----------------------------
D-----------------------------
A-----------------------------
E-0~-----1~-----0~-----3~-----

CHORUS
G-----------------------------
D-----------------------------
A-----------------------------
E-0~-----3~-----0~-----1~-----
[ Tab from: http://www.guitartabs.cc/tabs/f/falconhead/down_the_drain_btab.html ]
BREAK
G-----------------------------
D-----------------------------
A-----------------------------
E-0~------------0~------------

CHORUS
G-----------------------------
D-----------------------------
A-----------------------------
E-0~-----3~-----0~-----1~-----

VERSE
G-----------------------------
D-----------------------------
A-----------------------------
E-0~-----1~-----0~-----3~-----

That's all. Very easy.
Comments