Faithless - Insomnia Chords & Tabs

 

Insomnia Chords & Tabs

Faithless Chords & Tabs

Version: 2 Type: Tab 0 ratings
1 star 2 stars 3 stars 4 stars 5 stars
comments

Insomnia Tab

Noticed the other one didnt quite sound right so i played around with it
......
Also added the intro

intro (let ring)
e--------------------------------------------------------------------|
B-----3---------0---------7---------0--------------------------------|
G--------------------------------------------------------------------|  X2
D--------------------------------------------------------------------|
A--------------------------------------------------------------------|
E--------------------------------------------------------------------|

[ Tab from: http://www.guitartabs.cc/tabs/f/faithless/insomnia_tab_ver_2.html ]
e--------------------------------------------------------------------|
B--------------------------------------------------------------------|
G-----9--7-------9--7-------9--7-------9--7-------9--7---------------|
D--------------------------------------------------------------------|
A--------------------------------------------------------------------|
E--------------------------------------------------------------------|

etc


main dance beat
e-----------------------------------------------------------------------|
B-----------------------------------------------------------------------|
G-----------------------------------------------------------------------|
D-----------------------------------------------------------------------|
A--9-9-9-7-7-7-7-7-6-6-6-6-6-7-7-7-6-7----------------------------------|
E-----------------------------------------------------------------------|

Played Twice Then

e-----------------------------------------------------------------------|
B-----------------------------------------------------------------------|
G-----------------------------------------------------------------------|
D-----------------------------------------------------------------------|
A--9-9-9-11-11-11-11-11-6-6-6-6-6-7-7-7-6-7-----------------------------|
E-----------------------------------------------------------------------|

And Thats Also Played Twice
Comments