Faithless - Drifting Away Chords & Tabs

 

Drifting Away Chords & Tabs

Faithless Chords & Tabs

Version: 1 Type: Tab 0 ratings
1 star 2 stars 3 stars 4 stars 5 stars
comments

Drifting Away Tab

www.faithless.com

DRIFTING AWAY - Faithless
From their first album "Reverence"
Tabbed by Mathieu Klomp


Hi all
So this is my first tab (how cliche, its true though), so if it sucks..
I'm sure about the melody, dunno if it should be higher or lower,
(on the keyboard i start with an A, so you might as well play it one string
lower, starting with the A string). I think you should try it, even if you don't
know the song!! It's very easy so give it a try. There's no special rythm to it,
just keep 1 picking interval all along. 

Play this one TWICE
[ Tab from: http://www.guitartabs.cc/tabs/f/faithless/drifting_away_tab.html ]
e|-------------------------------------------------|
B|-------------------------------------------------|
G|-----2--0--2-----2-----2-----2--0--2--3--2--0----|
D|--0-----------3-----2-----0--------------------3-|
A|-------------------------------------------------|
E|-------------------------------------------------|2x

Play these two ONCE

e|-------------------------------------------------|
B|-----3--1--3-----3-----3-----3-----3-----3-----3-|
G|--------------3-----2-----0-----------0-----2----|
D|--0-----------------------------3----------------|
A|-------------------------------------------------|
E|-------------------------------------------------|1x

e|--------------------------1--0-------------------|
B|-----3--1--3-----3-----3--------3--1-----------3-|
G|--------------3-----2-----------------3--2--0----|
D|--0----------------------------------------------|
A|-------------------------------------------------|
E|-------------------------------------------------|1x

And that's it. You can loop it, make sure you end on:

e|----
B|----
G|----
D|--0-
A|----
E|----

(doh!)

Comments... maelstorm84@hotmail.com
Cheerz
Comments