Faith No More - Home Sick Home Chords & Tabs

 

Home Sick Home Chords & Tabs

Faith No More Chords & Tabs

Version: 1 Type: Tab

Home Sick Home Tab

Artist: faith no more
song: home sick home
album: album of the year
tabbed by: mr_munners@hotmail.com

main riff/intro
------------------------------------------------------|
------------------------------------------------------|
------------------------------------------------------|
-----0-1p0-------0-1p0-------0-1p0-------0-1p0--------|
---2-------2---2-------2---2-------2---2-------2------|
-0-----------0-----------0-----------0----------------|

verse riff  x2
---------------------------------------------------|
---------------------------------------------------|
---------------------------------------------------|
-----2--------2-4p2-------4--------4-6p4-----------|
---3---3----3-------3---5---5----5-------5---------|
-2--------2-----------4--------4-------------------|

[ Tab from: http://www.guitartabs.cc/tabs/f/faith_no_more/home_sick_home_tab.html ]
interlude x2
-------------------------------------------------------------------------|
-------------------------------------------------------------------------|
------------8-8-8-8-8-8-8-8-8-8-8-8--------------8-8-8-8-8-8-8-8-8-8-8-8-|
------------8-8-8-8-8-8-8-8-8-8-6-6--------------8-8-8-8-8-8-8-8-8-8-8-8-|
------------6-6-6-6-6-6-6-6-6-6-6-6--------------6-6-6-6-6-6-6-6-6-6-6-6-|
-3-5-3-0-----------------------------0-3-5-3-0---------------------------|

at the end of the interlude, repeat this power chord quickly, many times...

----
----
-8--
-8--
-6--
----

outro riff
---------------------------------------------|
---------------------------------------------|
---------------------------------------------|
-----0-2-------------------------------------|
---2-----2-1---------------------------------|
-0-------------------------------------------|

thats it...very easy song to play.