Faint - In Concert Chords & Tabs

 

In Concert Chords & Tabs

Faint Chords & Tabs

Version: 1 Type: Tab 0 ratings
1 star 2 stars 3 stars 4 stars 5 stars
comments

In Concert Tab

Submitted by Coolcatch
   

Q=172
    Gtr I
    PM----------|      PM--------|
||------------------|-----------------||
||o-----------------|----------------o||
||------------------|-----------------||
||--7-4-7-4---------|----7------------||
||o---------4---4---|--7---7-5---5---o||
||------------------|-----------------||
|
|   Gtr II
|   PM-----------------------------|
||------------------|-----------------||
||o-----------------|----------------o||
||------------------|-----------------||
||--7-4-7-4---7---7-|----7-------7----||
||o---------4---4---|--7---7-5-5---5-o||
||------------------|-----------------||
[ Tab from: http://www.guitartabs.cc/tabs/f/faint/in_concert_tab.html ]
Chorus
|--------------------|--------------|----------------|
|--------------------|--------------|----------------|
|-11--11--11-9-------|----------11--|-11--11-9-------|
|-11--11--11-9-x-9---|-9--9-7---11--|-11--11-9-x-9---|
|--9---9---9-7-x-9---|-9--9-7----9--|--9---9-7-x-9---|
|--------------x-7---|-7--7-5-------|----------x-7---|


|-------------|---------------|-----------|
|-------------|---------------|-----------|
|-------------|------------7--|-----------|
|-9--9-7---9--|-9--9-11--x-7--|-7--7-6----|
|-9--9-7---9--|-9--9-11--x-5--|-7--7-6----|
|-7--7-5---7--|-7--7--9--x----|-5--5-4----|



***************************************************************************************
* Generated using Power Tab Editor by Brad Larsen - http://powertab.guitarnetwork.org *
***************************************************************************************
Comments