Faint - Birth Chords & Tabs

 

Birth Chords & Tabs

Faint Chords & Tabs

Version: 1 Type: Tab 0 ratings
1 star 2 stars 3 stars 4 stars 5 stars
comments

Birth Tab

-----------------------------------------------------------------------------
			     Birth - The Faint
-----------------------------------------------------------------------------
Album: wet from birth
Tabbed by:colin carlson
Email:yellowsnow312@yahoo.com
 
 this a pritty cool song
 by the faint and one of the only songs that they have an extensive guitar part.
 well i hope you like it. some of the parts are not exactly right
 but i thought it sounded good 

Tuning:normal
 
Intro

e|------3-----2-----0-----0-----|----3-----2-----0-----0---|
B|------------------------------|--------------------------|
G|------------------------------|--------------------------|
D|--2-2---2-2---2-2---2-2---2-2-|2-2---2-2---2-2---2-2---2-|
A|------------------------------|--------------------------|
E|------------------------------|--------------------------|

e|-----3-----2-----0-----0-----|-----7-----3-----2----|
B|-----------------------------|----------------------|
G|-----------------------------|----------------------|
D|-----------------------------|-------2-2---2-2------|
A|-3-3---3-3---3-3---3-3---3-3-|-7-7------------------|
E|-----------------------------|----------------------|

Verse
 Part1

e|------3-----2-----0-----0-----|
B|------------------------------|
G|------------------------------|
D|--2-2---2-2---2-2---2-2---2-2-|
A|------------------------------|
E|------------------------------|

e|-----3-----2-----0-----0-----|----3-----2-----0-----0------|
B|-----------------------------|-----------------------------|
G|-----------------------------|-----------------------------|
D|-----------------------------|2-2---2-2---2-2---2-2---2-2--|
A|-3-3---3-3---3-3---3-3---3-3-|-----------------------------|
E|-----------------------------|-----------------------------|

repeat 3x


bridge

e|-x----x----x---x----x---x---x---x--|-x----x----x---x----x---x-----x---|
B|-5xx--8xx-10xx-7xx--8xx-5xx-7xx-x--|-5xx--8xx-10xx-7xx--8xx-7xx---5~~-|
G|-xxx--xxx--xxx-xxx--xxx-xxx-xxx-x--|-xxx--xxx--xxx-xxx--xxx-xxx---x---|
D|-xxx--xxx--xxx-xxx--xxx-xxx-xxx-9~-|-xxx--xxx--xxx-xxx--xxx-xxx---x---|
A|-7xx-10xx-12xx-9xx-10xx-7xx-9xx-x--|-7xx-10xx-12xx-9xx-10xx-9xx---7~~-|
E|-x----x----x---x----x---x---x---7~-|-x----x----x---x----x---x-----x---|

verse
 part2

listen to the song for the beat your just playing along with the bass part
[ Tab from: http://www.guitartabs.cc/tabs/f/faint/birth_tab.html ]
e|----------------------------|
B|----------------------------|
G|----------------------------|
D|----------------------------|
A|----------------------------|
E|--000000000000000000000000--|


e|-x----x----x--x----x----x--|3x then |--x----x----x---|
B|-5xx--8xx-10~-5xx--8xx-10~-|        |--8xx--7xx--5~~-|
G|-xxx--xxx--x--xxx--xxx--x--|        |--xxx--xxx--x---|
D|-xxx--xxx--x--xxx--xxx--x--|        |--xxx--xxx--x---|
A|-7xx-10xx-12~-7xx-10xx-12~-|        |-10xx--9xx--7~~-|
E|-x----x----x--x----x----x--|        |--x----x----x---|

e|------3-----2-----0-----0-----|----3-----2-----0-----0---|
B|------------------------------|--------------------------|
G|------------------------------|--------------------------|
D|--2-2---2-2---2-2---2-2---2-2-|2-2---2-2---2-2---2-2---2-|
A|------------------------------|--------------------------|
E|------------------------------|--------------------------|

e|-----3-----2-----0-----0-----|----3-----2-----0-----0------|
B|-----------------------------|-----------------------------|
G|-----------------------------|-----------------------------|
D|-----------------------------|2-2---2-2---2-2---2-2---2-2--|
A|-3-3---3-3---3-3---3-3---3-3-|-----------------------------|
E|-----------------------------|-----------------------------|

interlude

e|------3-----2-----0-----0-----|----3-----2-----0-----0---|
B|------------------------------|--------------------------|
G|------------------------------|--------------------------|
D|--2-2---2-2---2-2---2-2---2-2-|2-2---2-2---2-2---2-2---2-|
A|------------------------------|--------------------------|
E|------------------------------|--------------------------|

e|-----3-----2-----0-----0-----|----------7-----3-----2----|
B|-----------------------------|---------------------------|
G|-----------------------------|---------------------------|
D|-----------------------------|------------2-2---2-2------|
A|-3-3---3-3---3-3---3-3---3-3-|------7-7------------------|
E|-----------------------------|---------------------------|

e|-x----x----x---x----x---x---x---x--|-x----x----x---x----x---x-----x---|
B|-5xx--8xx-10xx-7xx--8xx-5xx-7xx-x--|-5xx--8xx-10xx-7xx--8xx-7xx---5~~-|
G|-xxx--xxx--xxx-xxx--xxx-xxx-xxx-x--|-xxx--xxx--xxx-xxx--xxx-xxx---x---|
D|-xxx--xxx--xxx-xxx--xxx-xxx-xxx-9~-|-xxx--xxx--xxx-xxx--xxx-xxx---x---|
A|-7xx-10xx-12xx-9xx-10xx-7xx-9xx-x--|-7xx-10xx-12xx-9xx-10xx-9xx---7~~-|
E|-x----x----x---x----x---x---x---7~-|-x----x----x---x----x---x-----x---|
3x then end



| ~  hold note
| x  Mute note
============================================================================
Comments