Factory 81 - Peace Officer Chords & Tabs

 

Peace Officer Chords & Tabs

Factory 81 Chords & Tabs

Version: 1 Type: Tab 0 ratings
1 star 2 stars 3 stars 4 stars 5 stars
comments

Peace Officer Tab

   
BITCHIN' TABS

          URL: www.angelfire.com/goth/btab/
	EMAIL: btabmaster@hotmail.com

 ----------------------------------------------------------------------------------------------

	     SONG: Peace Officer
	     BAND: Factory 81
	    ALBUM: Mankind
   TRANSCRIBED BY: Chris Frazier (btabmaster@hotmail.com)
	     DATE: 04-29-2K1

 ----------------------------------------------------------------------------------------------

	TUNING: Drop-C (C, G, C, F, A, D)

     Riff 1:
    D|---|
    A|---|
    F|---| Volumn swell 
    C|-0-|
    G|-0-|
    C|-0-|

     Riff 2:
    D|--------------------------------------------------|
    A|--------------------------------------------------|
    F|--------------------------------------------------| 
    C|-0-0-00-----0-0-00-/6-66--0-0-00-----0-0-00-6h5p6-|
    G|-0-0-00-----0-0-00-/6-66--0-0-00-----0-0-00-6h5p6-|
    C|-0-0-00-[9]-0-0-00-/6-66--0-0-00-[9]-0-0-00-6h5p6-|

     Riff 3:
    D|-------------------------------------------------|
    A|-------------------------------------------------|
    F|-------------------------------------------------| 
    C|-0-0-00-----0-0-00-/6-66--0-0-00-----6-5-3-6-5-3-|
    G|-0-0-00-----0-0-00-/6-66--0-0-00-----6-5-3-6-5-3-|
    C|-0-0-00-[9]-0-0-00-/6-66--0-0-00-[9]-6-5-3-6-5-3-|
     PM                                    - - - - - -

     Riff 4:
    D|----------------------|
    A|----------------------|
    F|----------------------| Last time, play a harmonic after the triple of 0's
    C|----------------------| and bend it 1 step
    G|----------------------|
    C|-0-0-[9-9-9]-0-0-0----|

     Riff 5:
    D|-----------|
    A|-----------|
    F|-----------| 
    C|-00000-000-|
    G|-00000-000-|
    C|-00000-000-|
     PM----- ---

     Riff 1:
    D|-[12-12-12-12]-|
    A|---------------|
    F|---------------| 
    C|---------------|
    G|---------------|
    C|---------------|
     PM -- -- -- --

     Riff 7:
    D|-------------------[12]-|
    A|------------------------|
    F|------------------------| 
    C|-0-0---------0-0-0------|
    G|-0-0---------0-0-0------|
    C|-0-0-[9-9-9]-0-0-0------|
[ Tab from: http://www.guitartabs.cc/tabs/f/factory_81/peace_officer_tab.html ]
     Riff 8:
    D|------------------------------------------------------|
    A|-3----------/6----------------------------------------|
    F|-2----------/5----------------------------------------|
    C|-0-----1----/3--0-----1-3-1-0-1-3-1-0-1-3-1-0-1-3-1-0-|
    G|-0-----1----/3--0-----1-3-1-0-1-3-1-0-1-3-1-0-1-3-1-0-|
    C|-0-----1----/3--0-----1-3-1-0-1-3-1-0-1-3-1-0-1-3-1-0-|
     PM                     - - - - - - - - - - - - - - - -

     Riff 9:
    D|-----------------------------------------------------------------------------|
    A|-----------------------------------------------------------------------------|
    F|-----------------------------------------------------------------------------| 
    C|-0-0-00-----0-0-00-/6-66--0-0-00-----[12]-[12]-[12]--------------------------|
    G|-0-0-00-----0-0-00-/6-66--0-0-00--------------------[12]-[12]-[12]-[12]-[12]-|
    C|-0-0-00-[9]-0-0-00-/6-66--0-0-00-[9]-----------------------------------------|

     Riff 10:
    D|-----------------------|
    A|-----------------------|
    F|-----------------------| 
    C|-----------------------|
    G|-----------------------|
    C|-0-0-0-0-0-0-0-0-0-(0)-|

     Riff 11:
    D|-----------------------------------------------------------|
    A|-----------------------------------------------------------|
    F|-----------------------------------------------------------| 
    C|-----------------------------------------------------------|
    G|-------------------[12]-[12]-[12]--------------------------|
    C|-0-0-0-0-0-0-0-0-0----------------[12]-[12]-[12]-[12]-[12]-|

     Riff 12:
    D|-------------|
    A|-------------|
    F|-------------| 
    C|-6-5-3-6-5-3-|
    G|-6-5-3-6-5-3-|
    C|-6-5-3-6-5-3-|
     PM- - - - - -

     Riff 13:
    D|----------------|
    A|----------------|
    F|----------------| 
    C|-----0--------1-|
    G|---0--------1---|
    C|-0--------1-----|

     Riff 14:
    D|---------------------|
    A|---------------------|
    F|---------------------| 
    C|-1-1-1-1-1-1-1-1-1-1-|
    G|-1-1-1-1-1-1-1-1-1-1-|
    C|-1-1-1-1-1-1-1-1-1-1-|
     PM- - - - - - - - - -

     Riff 15:
    D|--------------------------------|
    A|--------------------------------|
    F|--------------------------------| 
    C|-0-x-x-0-x-x-0--1-x-x-1-x-x-3-1-|
    G|-0-x-x-0-x-x-0--1-x-x-1-x-x-3-1-|
    C|-0-x-x-0-x-x-0--1-x-x-1-x-x-3-1-|
     PM-     -     -  -     -       -

     Riff 16:
    D|---------|
    A|---------|
    F|---------| 
    C|-1-1-1-0-|
    G|-1-1-1-0-|
    C|-1-1-1-0-|
     PM- - -
Comments