Factory 81 - Patriot Chords & Tabs

 

Patriot Chords & Tabs

Factory 81 Chords & Tabs

Version: 1 Type: Tab 0 ratings
1 star 2 stars 3 stars 4 stars 5 stars
comments

Patriot Tab

   
Factory 81 - Patriot

Tabber: John Cukras
Email: riffreaper@yahoo.com

Tuning: C G C F A D

Riff 1:
D---------------------------------------16-18-19-18--------------|
A----------------------------------------------------------------|
F----------------------------------------------------------------|
C----------------------------------------------------------------|
G-00000-9---------------00000-9----------------------------11111-|
C-00000-9--00000-9-8-7--00000-9--00000------------- x's 4--11111-|
pm.....    .....        .....    .....                     .....
[ Tab from: http://www.guitartabs.cc/tabs/f/factory_81/patriot_tab.html ]
Riff 2:
D-------------------------------------------------------------|
A-------------------------------------------------------------|
F-------------------------------------------------------------|
C-------------------------------------------------------------|
G-3-444-3-444-3-00-3-00-6-4--3-444-3-444-3-00-3-44-2----------|
C-3-444-3-444-3-00-3-00-6-4--3-444-3-444-3-00-3-44-2    x's 4-|
pm. ... . ... . .. . .. . .  . ... . ... . .. . ..

Riff 1 x's 2

Riff 2

Riff 1 x's 2

Riff 3:
D--------------|----------------------------------------|--------------------------------------------|
A--------------|----------------------------------------|--------------------------------------------|
F--------------|----------------------------------------|--------------------------------------------|
C--------------|-9-99-7------------9-99-7---------------|-11-11-9------------11-11-9-----------------|
G-0------------|-7-77-5-3/5-5/3-3--7-77-5-444-666-------|-9--99-7-5/7-7/5-5--9--99-7-666-888---------|
C-0(Let ring)--|--------3/5-5/3-3---------444-666 x's 2-|---------5/7-7/5-5----------666-888  x's 2--|

Solo (if you tab this send it to me please!)

Riff 2 x's 2

Riff 1
Comments