Factory 81 - Ephedrine Chords & Tabs

 

Ephedrine Chords & Tabs

Factory 81 Chords & Tabs

Version: 2 Type: Tab 0 ratings
1 star 2 stars 3 stars 4 stars 5 stars
comments

Ephedrine Tab

   
Band: Factory 81
Song: Ephedrine
Track: 7
Ablum: Mankind
Tabber: (hHEad) hhead@fatbabies.com
Tuning: C,A,C,G,B,E
Info: www.factory81.com

;-----
Comming Soon!! www.bundleoftwigs.com !
;-----
[ Tab from: http://www.guitartabs.cc/tabs/f/factory_81/ephedrine_tab_ver_2.html ]
			JUST LISTEN TO THE SONG IF U WANT TO PLAy it right!
;Intro
|-------------------------------------------------------------|
|-------------------------------------------------------------|
|-------------------------------------------------------------|
|-1-------0-0-0-(5)----0-0-0-1h3-1h3--------------------------|
|-1-------0-0-0----(5)-0-0-0-1h3-1h3--------------------------|
|-1-------0-0-0--------0-0-0-1h3-1h3--------------------------|
ring out
;Riff1
|-------------------------------------------------------------|
|-------------------------------------------------------------|
|-------------------------------------------------------------|
|-0-0-0-------------------------------------------------------|
|-0-0-0-565656565656------------------------------------------|
|-0-0-0-------------------------------------------------------|
        tap....................
;Riff2
|-------------------------|-----------------------------------|
|-------------------------|-----------------------------------|
|-------------------------|--(3.2)----------------------------| (3.2) :)
|-0-0-1-0-0--0-0-0-6-5----|-----------------------------------|
|-0-0-1-0-0--0-0-0-6-5----|-----------------------------------|
|-0-0-1-0-0--0-0-0-6-5----|-----------------------------------|

;Riff3
|-------------------------------------------------------------|
|-------------------------------------------------------------|
|-------------------------------------------------------------|
|-0-0-0-6-5-3-5-3-5-1-----------------------------------------|
|-0-0-0-6-5-3-5-3-5-1-----------------------------------------|
|-0-0-0-6-5-3-5-3-5-1-----------------------------------------|

;Riff4
|-------------------------------------------------------------|
|-------------------------------------------------------------|
|-------------------------------------------------------------|
|-7-7-8-8-3-3-3-3-3-3-3---------------------------------------|
|-7-7-8-8-3-3-3-3-3-3-3---------------------------------------|
|-7-7-8-8-3-3-3-3-3-3-3---------------------------------------|

FACTORY81 RULES
Comments