Factory 81 - Cheese Wheel Chords & Tabs

 

Cheese Wheel Chords & Tabs

Factory 81 Chords & Tabs

Version: 1 Type: Tab 0 ratings
1 star 2 stars 3 stars 4 stars 5 stars
comments

Cheese Wheel Tab

   
Band: Factory 81
Song: Cheese Wheel

Tabber: John Cukras
Email: riffreaper@yahoo.com

Tuning: C G C F A D

Riff 1:
D-------------------------------|
A-------------------------------|
F-------------------------------|
C---------------------12~-------|
G-0---0---0-------0(0)----------|
C-0---0---0-----3-0(0)--- x's 8-|
[ Tab from: http://www.guitartabs.cc/tabs/f/factory_81/cheese_wheel_tab.html ]
Riff 2:         A                           B
D---------------------------|-------------------------------------------------------------------------|
A---------------------------|-------------------------------------------------------------------------|
F---------------------------|-------------------------------------------------------------------------|
C---------------------------|-------------8-7-7-7777-7--------------8-7-7-7777-7-12121212-1010--------|
G-2-1-0-1h3-1h3-1h3---------|--5-5-5555-5-6-5-5-5555-5-6-5-5-5555-5-6-5-5-5555-5-10101010-8888--------|
C-2-1-0-1h3-1h3-1h3 x's 8---|--5-5-5555-5--------------6-5-5-5555-5--------------------------- x's 2--|
pm. .                                                  .

Riff 1 x's 4

Riff 2

Riff 3:
D-------------------------------------|
A-------------------------------------|
F-------------------------------------|
C---------------------------------3/5-|
G-1/5-0---------------------------1/5-|
C-1/5-0-0-1-2-0-1-2-0-1-2 x's 8-------|
pm      . . . . . . . . .

Riff 2: B

Riff 3

Riff 2: B x's 4
Comments