Factory 81 - Belligerence Chords & Tabs

 

Belligerence Chords & Tabs

Factory 81 Chords & Tabs

Version: 1 Type: Tab 0 ratings
1 star 2 stars 3 stars 4 stars 5 stars
comments

Belligerence Tab

   
Band: Factory 81
Song: Belligerence
CD: Mankind
Tabbed By: BlindedRhythm
E-mail: MndlessGuitarist@hotmail.com

Tuning: Dropped-C (C G C F A D)

Intro
|-----------------------------------------------------|
|-----------------------------------------------------|
|-----------------------------------------------------|
|-5h6-0-3-0-0-5h6-0-3-0-0-5h6-0-3-0-0-5h6-6-6-6/9-9-9-|
|-5h6-0-3-0-0-5h6-0-3-0-0-5h6-0-3-0-0-5h6-6-6-6/9-9-9-|
|-5h6-0-3-0-0-5h6-0-3-0-0-5h6-0-3-0-0-5h6-6-6-6/9-9-9-|x6

Verse
|-----------------------------------------------------|
|-----------------------------------------------------|
|-----------------------------------------------------|
|-5h6-0-3-0-0-5h6-0-3-0-0-5h6-0-3-0-0-5h6-6-6-6/9-9-9-|
|-5h6-0-3-0-0-5h6-0-3-0-0-5h6-0-3-0-0-5h6-6-6-6/9-9-9-|
|-5h6-0-3-0-0-5h6-0-3-0-0-5h6-0-3-0-0-5h6-6-6-6/9-9-9-|x3
  PM-------------------------------------------------|

|-----------------------------------------------------|
|-----------------------------------------------------|
|-----------------------------------------------------|
|-5h6-0-3-0-0-5h6-0-3-0-0-5h6-0-3-0-0-5h6-6-6-6/9-9-9-|
|-5h6-0-3-0-0-5h6-0-3-0-0-5h6-0-3-0-0-5h6-6-6-6/9-9-9-|
|-5h6-0-3-0-0-5h6-0-3-0-0-5h6-0-3-0-0-5h6-6-6-6/9-9-9-|
  PM---------------------------------|

Chorus
|-----------------------------------------------------|
|-----------------------------------------------------|
|-----------------------------------------------------|
|-5h6-0-3-0-0-5h6-0-3-0-0-5h6-0-3-0-0-5h6-6-6-6/9-9-9-|
|-5h6-0-3-0-0-5h6-0-3-0-0-5h6-0-3-0-0-5h6-6-6-6/9-9-9-|
|-5h6-0-3-0-0-5h6-0-3-0-0-5h6-0-3-0-0-5h6-6-6-6/9-9-9-|x4

Repeat Verse the same.
Play Chorus same way.

Interlude
|------------------------------------------------|
|------------------------------------------------|
|-5-5-5-5-5-5-5-5-5-5-5-5-5-5^-5^-5^-5^-5^-5^-5^-|
|-3-3-3-3-3-3-3-3-3-3-3-3-3----------------------|
|-3-3-3-3-3-3-3-3-3-3-3-3-3----------------------|
|-3-3-3-3-3-3-3-3-3-3-3-3-3----------------------|

|-----------------------------------------------------------------|
|-----------------------------------------------------------------|
|-----------------------------------------------------------------|
|-5h6-0-0-0-0-0-0-5h6-0-0-0-0-0-0-5h6-0-0-0-0-0-0-5h6-0-0-0-0-0-0-|
|-5h6-0-0-0-0-0-0-5h6-0-0-0-0-0-0-5h6-0-0-0-0-0-0-5h6-0-0-0-0-0-0-|
|-5h6-0-0-0-0-0-0-5h6-0-0-0-0-0-0-5h6-0-0-0-0-0-0-5h6-0-0-0-0-0-0-|
      PM---------|    PM---------|    PM---------|    PM---------|

Repeat both riffs above 2 time then play this:
|-------------------------------------|
|-------------------------------------|
|-5-5-5-5-5-5-5-5-5-5-5-5-5-5//\\-----|
|-3-3-3-3-3-3-3-3-3-3-3-3-3-3//\\-0~~-|
|-3-3-3-3-3-3-3-3-3-3-3-3-3-3//\\-0~~-|
|-3-3-3-3-3-3-3-3-3-3-3-3-3-3//\\-0~~-|
[ Tab from: http://www.guitartabs.cc/tabs/f/factory_81/belligerence_tab.html ]
Bridge
|--------|
|--------|
|--------|
|-0~---0-|
|-0~---0-|
|-0~---0-|
NOTE: The first open note is started with the volume nob turned 
down then he turns it up.

|-----------------------------------------------|
|-----------------------------------------------|
|-------7-----------------------7-------------5-|
|-3h5-0-7-6-5-3-0-3h5-3h5-3h5-0-7-6-5-3-0-3h5-5-|
|-3h5-0-5-6-5-3-0-3h5-3h5-3h5-0-5-6-5-3-0-3h5-3-|
|-3h5-0---6-5-3-0-3h5-3h5-3h5-0---6-5-3-0-3h5---|x8

|-----------------------------------------------|
|-----------------------------------------------|
|-------7-----------------------7---------------|
|-3h5-0-7-6-5-3-0-3h5-3h5-3h5-0-7-6-5-3-0-0-0-0-|
|-3h5-0-5-6-5-3-0-3h5-3h5-3h5-0-5-6-5-3-0-0-0-0-|
|-3h5-0---6-5-3-0-3h5-3h5-3h5-0---6-5-3-0-0-0-0-|
                  PM---|

|-----------------------------------------------|
|-----------------------------------------------|
|-------7-----------------------7-------------5-|
|-3h5-0-7-6-5-3-0-3h5-3h5-3h5-0-7-6-5-3-0-3h5-5-|
|-3h5-0-5-6-5-3-0-3h5-3h5-3h5-0-5-6-5-3-0-3h5-3-|
|-3h5-0---6-5-3-0-3h5-3h5-3h5-0---6-5-3-0-3h5---|

Outro
|------------------------------------------------|
|------------------------------------------------|
|-5-5-5-5-5-5-5-5-5-5-5-5-5-5^-5^-5^-5^-5^-5^-5^-|
|-3-3-3-3-3-3-3-3-3-3-3-3-3----------------------|
|-3-3-3-3-3-3-3-3-3-3-3-3-3----------------------|
|-3-3-3-3-3-3-3-3-3-3-3-3-3----------------------|

|-----------------------------------------------------------------|
|-----------------------------------------------------------------|
|-----------------------------------------------------------------|
|-5h6-0-0-0-0-0-0-5h6-0-0-0-0-0-0-5h6-0-0-0-0-0-0-5h6-0-0-0-0-0-0-|
|-5h6-0-0-0-0-0-0-5h6-0-0-0-0-0-0-5h6-0-0-0-0-0-0-5h6-0-0-0-0-0-0-|
|-5h6-0-0-0-0-0-0-5h6-0-0-0-0-0-0-5h6-0-0-0-0-0-0-5h6-0-0-0-0-0-0-|
      PM---------|    PM---------|    PM---------|    PM---------|

Play both riffs 4 times this time then go into this:
|-----------------------------------------------------------|
|-----------------------------------------------------------|
|-----------------------------------------------------------|
|-5h6-0-0-0-0-0-0-5h6-0-0-0-0-0-0-5h6-0-0-0-0-0-0-3-0-3-0-3-|
|-5h6-0-0-0-0-0-0-5h6-0-0-0-0-0-0-5h6-0-0-0-0-0-0-3-0-3-0-3-|
|-5h6-0-0-0-0-0-0-5h6-0-0-0-0-0-0-5h6-0-0-0-0-0-0-3-0-3-0-3-|x3
      PM---------|    PM---------|    PM---------|

|-------------------------------------------------------------|
|-------------------------------------------------------------|
|-------------------------------------------------------------|
|-5h6-0-0-0-0-0-0-5h6-0-0-0-0-0-0-5h6-0-0-0-0-0-0-3-0-3-0-1-0-|
|-5h6-0-0-0-0-0-0-5h6-0-0-0-0-0-0-5h6-0-0-0-0-0-0-3-0-3-0-1-0-|
|-5h6-0-0-0-0-0-0-5h6-0-0-0-0-0-0-5h6-0-0-0-0-0-0-3-0-3-0-1-0-|
      PM---------|    PM---------|    PM---------|  PM-|


That's the song.
Comments