Factory 81 - Backdoor Chords & Tabs

 

Backdoor Chords & Tabs

Factory 81 Chords & Tabs

Version: 1 Type: Tab 0 ratings
1 star 2 stars 3 stars 4 stars 5 stars
comments

Backdoor Tab

   
Factory 81 - Backdoor
Submitted By: Schecter Man

Tabber: John Cukras
Email: riffreaper@yahoo.com

Tuning: C G C F A D

Riff 1:
C--5/7----5/7----5/7----5/7--9--5/7-----
G--3/5----3/5----3/5----3/5--7--3/5-----
C------00-----00-----00-------------00--
pm     ..     ..     ..             ..

Riff 2:
C--5/7------5/7------5/7------555--777
G--3/5------3/5------3/5------333--555
C------0000-----0000-----0000----------
pm     ....     ....     ....
[ Tab from: http://www.guitartabs.cc/tabs/f/factory_81/backdoor_tab.html ]
Riff 3:
C----9--7-------------
G-0--7--5--3--1--0000-
C-0--------3--1--0000-
pm               ....

Riff 4:
C----------------------------------------------------------------------------66666666666-0-
G-9999-12-9999-12-9999-12-9999-12-11-9-9999-12-9999-12-9999-12-9999-12-11-9--44444444444-0-
C------------------------------------------------------------------------------------------
pm.....................................

Outra (way end):
C-----------------------------
G-1/3----1/3----1/3----1/3-0--
C-1/3-00-1/3-00-1/3-00-1/3-0--
pm    ..     ..     ..
Comments