Factory 81 - 3 O Clock Love Letter Chords & Tabs

 

3 O Clock Love Letter Chords & Tabs

Factory 81 Chords & Tabs

Version: 1 Type: Tab 0 ratings
1 star 2 stars 3 stars 4 stars 5 stars
comments

3 O Clock Love Letter Tab

Band: Factory 81 
Song: 3 O'Clock Love Letter 
Album: Mankind 
Transcribed by: BUddAh MAn 

This song is great and fun to play so just play it! 
E-MAIL ME WITH QUESTIONS OR COMMENTS DEFTONES150@HOTMAIL.COM 

=:LET NOTE RING 
h: this hammering is done with your finger(no picking) 
P.M.: Palm Mute 
<#>: Harmonic 
p: Pull Off 
/:Slide 
THERE ARE NO DOUBLE DIGIT FRETS PLAYED IN THIS SONG 

INTRO W/PHASER OR CHORUS/FLANGE PEDAL AND SLIGHT DISTORTION 
D|------------------------------| 
A|------------------------------| 
F|------------------------------|PLAY THIS SEVERAL TIMES. 
C|------------------------------| 
G|--0h2-2-2--0h2-2-2--2h3-3p0---| 
C|--0h2-2-2--0h2-2-2--2h3-3p0---| 
P.M.    -        - 
[ Tab from: http://www.guitartabs.cc/tabs/f/factory_81/3_o_clock_love_letter_tab.html ]
CHORUS/INTRO 2 W/FULL DISTORTION 
D|-----------------------------------------| 
A|-----------------------------------------| 
F|-----------------------------------------| 
C|--0h2-22-22-00-0-2/3-5-5-555-33-<5>------| 
G|--0h2-22-22-00-0-2/3-5-5-555-33-----<5>--| 
C|--0h2-22-22-00-0-2/3-5-5-555-33----------| 

VERSE FULL DISTORTION 
D|------------------------| 
A|------------------------| 
F|------------------------| 
C|--0h2-2-2--0h2-2-2h3-3--| 
G|--0h2-2-2--0h2-2-2h3-3--| 
C|--0h2-2-2--0h2-2-2h3-3--| 
P.M.  - -      - - 

BRIDGE 1 THIS ENDS THE CHROUS PLAYED BEFORE IT 
SO YOU WILL PLAY THE NOTE UNTILL YOU GET FEEDBACK. 
D|------| 
A|------| 
F|------| 
C|--2---| 
G|--2---| 
C|--2---| 
    = 

BRIDGE 2 
D|-----------| 
A|-----------| 
F|-----------| 
C|------9----| 
G|--------9--| 
C|--7--------| 
    = 

BRIDGE 3 
D|------------------------| 
A|------------------------| 
F|------------------------| 
C|--2----3-2----2----3-2--| 
G|--2----3-2----2----3-2--| 
C|--2----3-2----2----3-2--| 
    =      =    =      = 

BRIDGE 4 THIS PART IS NOT EXACT BUT 
ITS SOUNDS DAMN CLOSE 
D|---------------| 
A|---------------| 
F|---------------| 
C|--2-2-2--------| 
G|--2-2-2---3----| 
C|--2-2-2-0---3--| 

PLAY THE CHORUS A COUPLE MORE TIMES AND THAT'S IT! 
PEACE OUT!! 
Comments