Factory 81 - 14 Left Chords & Tabs

 

14 Left Chords & Tabs

Factory 81 Chords & Tabs

Version: 1 Type: Tab 0 ratings
1 star 2 stars 3 stars 4 stars 5 stars
comments

14 Left Tab

   
Band: Factory 81 
Album: Mankind 
Song: 14 left 
TRANSCRIBED BY: BUddAh MAn 

Tuning(low to high):C,G,C,F,A,D 
Factory 81 kicks ass and this song is kind of simple but 
it is fun as hell to play and it gets you going, so play 
on and have a good tyme with it. Peace, e-mail me for 
questions or comments, or corrections @ deftones150@hotmail.com 

<#>: Harmonic 
there are no double digit frets in this song. 
[ Tab from: http://www.guitartabs.cc/tabs/f/factory_81/14_left_tab.html ]
INTRO/BRIDGE W/SLIGHT DISTORTION AND SOME TYPE OIF EFFECT 
D|--------------------------------------------------| 
A|--------------------------------------------------| 
F|--------------------------------------------------| 
C|--------------------------------------------------| 
G|--------------------------------------------------| 
C|--0-2-22-0-2-00-2-22-0-2-00-2-22-0-2-00-2-22-0-2--| 

INTRO PART 2/VERSE(VERSE IS PALM MUTED) 
D|------------------------------------------|------| 
A|------------------------------------------|------|DURING THE BRIDGE 
F|------------------------------------------|------|PLAY THAT NOTE. 
C|--0-2-22-0-2-00-2-22-0-2-00-2-22-0-<3>----|--5---| 
G|--0-2-22-0-2-00-2-22-0-2-00-2-22-0--------|--3---| 
C|--0-2-22-0-2-00-2-22-0-2-00-2-22-0--------|------| 

PRE-CHORUS/CHORUS 
D|-------------------| 
A|-------------------| 
F|-------------------| 
C|--2------2-0-2-----| 
G|--2------2-0-2-----| 
C|--2------2-0-2-----| 
   LET         LET 
   RING        RING 

THAT WOULD BE THE WHOLE SONG THERE EXCEPT FOR DURING THE 
BIERDGE THE VERSE IS PLAYED A BUNCH WITH A SLIGHT DIFFERENCE 
IN THE BEAT SO JUST LISTEN TO THE SONG AND YOU'LL HEAR WHAT I MEAN. 

PEACE OUT!! 
Comments