Faction - California Dreamin Chords & Tabs

 

California Dreamin Chords & Tabs

Faction Chords & Tabs

Version: 1 Type: Tab 0 ratings
1 star 2 stars 3 stars 4 stars 5 stars
comments

California Dreamin Tab

   
FACTION - California Dreamin

INTRO
e|-------------------------------------------------------|
B|---------8-6-5---------8-6-5-----10-11-10-8-6-5-6/8----|
G|---7-9-7---------7-9-7---------7-----------------------|
D|-7-------------7-------------7-------------------------|
A|-------------------------------------------------------|
E|-------------------------------------------------------|
[ Tab from: http://www.guitartabs.cc/tabs/f/faction/california_dreamin_tab.html ]
e|-9-7-5-3-~--------------------------------------------|
B|-7-5-3-2-~--------------------------------------------|
G|------------------------------------------------------|
D|------------------------------------------------------|
A|------------------------------------------------------|
E|------------------------------------------------------|

VERSE AND CHORUS
     D     C     B    C  A
e|------------------------------------------------------|
B|------------------------------------------------------|
G|------------------------------------------------------|
D|---7-----5-----3----5---------------------------------|
A|---5-----3-----1----3--7------------------------------|
E|-----------------------5------------------------------|

No one else has this tab!
any comments or corrections:  crimson_ghost421@hotmail.com
Comments