Face To Face - Im Not Afraid Chords & Tabs

 

Im Not Afraid Chords & Tabs

Face To Face Chords & Tabs

Version: 1 Type: Bass Tab 0 ratings
1 star 2 stars 3 stars 4 stars 5 stars
comments

Im Not Afraid Bass Tab

Song: I'm Not Afraid
Band: Face To Face
By :Carlos Pino

intro & Chorus
G|----------------------------------------------
D|----------------------------------------------  4x
A|------------3-3-3-3-1-1-1-1-3-3-3-3-----------
E|-1-1-1-1--------------------------------------


G|--------------------------------------------------------------------------
D|--------------------------------------------------------------------------

2x first time
A|-7-7-7-7------------7-7-7-7--------------7-7-7-7--------------------------
[ Tab from: http://www.guitartabs.cc/tabs/f/face_to_face/im_not_afraid_btab.html ]
1x after Chorus
E|------------7-7-7-7------------7-7-7-7------------5-5-5-5-6-6-6-6-7-7-7-7-

Verse
G|-----------------------------------
D|-------------------------------------    4x
A|------------------------2-2-2-2-2-
E|-1-1-1-1-3-3-3-3-------------


G|------------------------------------------------------------------------------
D|------------------------------------------------------------------------------
A|-5-5-5-5-3-3-3-3-5-5-5-5-3-3-3-3-5-5-5-5-3-3-3-3-1-1-1-1----------------------
E|------------------------------------------------------------------------------


Comments