Fabolous - Cant Let You Go Chords & Tabs

 

Cant Let You Go Chords & Tabs

Fabolous Chords & Tabs

Version: 6 Type: Tab 0 ratings
1 star 2 stars 3 stars 4 stars 5 stars
comments

Cant Let You Go Tab

Title - Can't let you go
Artist - Fabolous feat. lil mo

This is my second ever tab. Ignore the gap between the first half and the
second, it should be played straight through. This is exactly how it sounds
on the record. i mean exactly. all the other tabs are complete bull.
Standard Tuning. Just repeat it over and over again. sounds great with
the record on behind it...

Email me if its kl, chazgoldblatt@hotmail.com

(5)  = played together   //                             
(6)  = played together   //     (7/s/9) = Slide up from 7 to 9

[ Tab from: http://www.guitartabs.cc/tabs/f/fabolous/cant_let_you_go_tab_ver_6.html ]
E	|--------------------------------------------------|
B	|--(5)--4/5/4---4--5(5)5/7--(7/s/9)--7--5--------|
G	|--(6)---------6------(6)--------------------------|
D	|--------------------------------------------------|
A	|--------------------------------------------------|
E	|--------------------------------------------------|

E	|-------------------------------------------------------------------|
B	|-------------------------------------------------------------------|
G	|---(6)-------6---(4)----4/6/4----4--6-------(BACK TO BEGINNING)----|
D	|---(6)---4/6-----(4)-----------6-----------------------------------|
A	|-------------------------------------------------------------------|
E	|-------------------------------------------------------------------|
Comments