Faber Drive - You And I Tonight Chords & Tabs

 

Faber Drive Chords & Tabs

Version: 1 Type: Tab 0 ratings
1 star 2 stars 3 stars 4 stars 5 stars
comments

You And I Tonight Tab

intro Lead
e|----------------------------|
B|----------------------------|
G|----------------------------|
D|----5/7---5----2--2--3~-----|
A|----------------------------|
E|----------------------------|

Rhythm 
e|----------------------------------------------------------|
B|----------------------------------------------------------|
G|----------5----------------5-----------------5------------|
D|---2-3-2----3-2-3-----3--------3---3------3------3----3---|
A|--------------------3---3--------3------1---1-------1-----|
E|----------------------------------------------------------|

That basically keeps going until the chorus, however, when he sings "your skin" 
the lead plays this
Lead
e|------------------------|
B|----6-5---5-6-5---------|
G|--------5-------5-------|
D|------------------------|
A|------------------------|
E|------------------------|

And that is repeated until the chorus
Rhythm does a little bit of a build up before the chorus
just do a crescendo on this chord
e|--------------|
B|--------------|
G|-----3--------|
D|-----3--------|
A|-----1--------|
E|--------------|

Chorus both guitars

e|-------------------------------|
B|-------------------------------|
G|--------5555---77777-----------|
D|--3333--5555---77777--8888-----|
A|--3333--3333---55555--8888-----|
E|--1111----------------6666-----|

Just repeat that until the end of the chorus
[ Tab from: http://www.guitartabs.cc/tabs/f/faber_drive/you_and_i_tonight_tab.html ]
just go back to the intro/ verse Lead plays this right after the chorus
e|----------------------------|
B|-----8/10---8----5--6~------|
G|----------------------------|
D|----------------------------|
A|----------------------------|
E|----------------------------|

Then it goes back to the chorus then it goes to a solo bit

e|------------------------------------------|
B|-----6--5----6--5----6/8/6--6--5----------|
G|----------5--------5-------------5--------|
D|------------------------------------------|
A|------------------------------------------|
E|------------------------------------------|

cont.
e|----13--12-----13--12------13/15/13--13--12--------|
B|-----------13----------13--------------------13----|
G|---------------------------------------------------|
D|---------------------------------------------------|
A|---------------------------------------------------|
E|---------------------------------------------------|

cont.
e|-------------------------------|
B|-----6--8--6-----6h8--6h8/10~--|
G|--------------5----------------|
D|-------------------------------|
A|-------------------------------|
E|-------------------------------|


Rhythm part that goes over the part above is...
e|-------------------------------|
B|-------------------------------|
G|---333333----77777----555555---|
D|---333333----77777----555555---|
A|---111111----55555----333333---|
E|-------------------------------|


then play the intro, then go into the chorus, then back to the intro then the song ends.
Comments