Eyes Of Abel - This Time Chords & Tabs

 

This Time Chords & Tabs

Eyes Of Abel Chords & Tabs

Version: 2 Type: Tab 0 ratings
1 star 2 stars 3 stars 4 stars 5 stars
comments

This Time Tab

Hey this is Ben from eyes of abel, if you want a demo, or t-shirt,
e-mail us at eyesofabel@yahoo.com
questions and comments welcome!

Intro                                                Repeat Once
|-------------------------------------------------------------------------------------------|
|-------------------------------------------------------------------------------------------|
|---9XX9XX9X9-9X9------------------------------------12X12X12X12X12-------------------------|
|---9XX9XX9X9-9X9--7--9-------/10XX10XX10X10-10X10---12X12X12X12X12--------12X12X12X12X12---|
|---7XX7XX7X7-7X7-------7-9---/10XX10XX10X10-10XX8---10X10X10X10X10--10h12-12X12X12X12X12---|
|---------------------------7-//8XXX8XXX8XX8--8XX8-------------------------10X10X10X10X10---|
Verse                                                 Repeat 3 Times
|-------------------------------------------------------------------------------------------|
|-------------------------------------------------------------------------------------------|
|---9-|Strum-|---------------------------------------12-12-XX-11-11-XX--9*------------------|
|---9-|-Fast-|-----10--|-Strum |-------12-|Strum|----12-12-XX--9--9-XX--9*------------------|
|---7-|4-sec.|---9/10--|--Fast-|-9h10//12-|-Fast|----10-10-XX--9--9-XX--7*------------------|
|-------------------8--|4-sec.-|-------10-|4-sec|-------------------------------------------|
[ Tab from: http://www.guitartabs.cc/tabs/e/eyes_of_abel/this_time_tab_ver_2.html ]
Chorus                   Repeat 3X                 Verse Fill (after you play verse twice)
|-----------------------------------------------|--------------------------------------------|
|-----------------------------------------------|--------------------------------------------|
|-----9*-----9-7---5*----4h5---7*---//--9-------|---9-\-5-/-7---9----------9---5----Back-T0--|
|-----9*---------9\5*----------7*---//--9-------|---9-\-5-/-5---9--7-\--5--9---5------Verse--|
|-----7*-----------3*----------5*---//--7XXXX---|---7-\-3-/-5---7--7-\--5--7-0-3-0-----------|
|-----------------------------------------------|------------------5-\--3--------------------|
 Second Verse                          Repeat 3X         Second Verse Fill
|------------------------------------------------------|-------------------------------------|
|------------------------------------------------------|-------------------------------------|
|---9-|Strum|---10-|Strum|----12-|Strum|---------------|---12-12-X--11-11-X--9*--------------|
|---9-|-----|---10-|-----|----12-|-----|--12-|strum|---|---12-12-X--11-11-X--9*--------------|
|---7-|-----|---10-|-----|----10-|-----|--12-|-----|---|---10-10-X---9--9-X--7*--------------|
|----------------8------------------------10-|-----|---|-------------------------------------|
 Solo
|--------------------------------------------------------------------------------------------|
|--------------------------------------------------------------------------------------------|
|--------------------------------------------------------------------------------------------|
|------9-7--------------------12-10\9--------9-7------------------12--10\9------9-10/12-10---|
|---7------9----9-7-----11-9----------10---7-----9---9-7-----11-9----------7/10--------------|
|-------------7-----9-9----------------------------7-----9-9---------------------------------|

|--------------------------------------------------------------------------------------------|
|--------------------------------------------------------------------------------------------|
|--------------------------------------------------------------------------------------------|
|--9\7-----9-10/12\10-9-5--5-5h7/9\7\5\4-4h5-4\2-0-2*----------------------------------------|
|-------10-----------------------------------------------------------------------------------|
|--------------------------------------------------------------------------------------------|

Song Structure:

Intro
Verse
Chorus
Verse
Verse 2
solo
chorus
Comments