Eyes Adrift - Alaska Chords & Tabs

 

Alaska Chords & Tabs

Eyes Adrift Chords & Tabs

Version: 1 Type: Bass Tab 0 ratings
1 star 2 stars 3 stars 4 stars 5 stars
comments

Alaska Bass Tab

   
--------------------------------------------------------------------------------
                    EYES ADRIFT   ALASKA
--------------------------------------------------------------------------------

Tabbed by: Gaz Flint
e-mail; gaznirvanachilipepperdude@hotmail.com

tuning; normal E,A,D,G

main riff, intro/verse
G-----------------------------------------
D-----------------------------------------
A--3---2---0---------------3---2---0------
E--------------3---2---0----------------3-

chorus
G----------------------------
D----------------------------
A--0------3------5-----------
E-----------------------5----
[ Tab from: http://www.guitartabs.cc/tabs/e/eyes_adrift/alaska_btab.html ]
then when it repeats the chorus on the 2nd chorus it changes to this
G---------------------------------------------
D---------------------------------------------
A--0-0-0-0-0--3-3-3-3-3--5-5-5-5-5------------
E-----------------------------------5-5-5-5---

then when the singing stops near the end it changes to this 
G------------------------------------------------------------------
D------------------------------------------------------------------
A--12-12-12-12-12--15-15-15-15-15--17-17-17-17-17-15-12-12-12-12---
E------------------------------------------------------------------


Eyes adrift are a really cool band, im really surprised they dont have more fans,
i mean Krist Novoselic of Nirvana is in them, and the Meat puppets legend Kurt
Kirkwood,they really do rule. Just listen to the CD for the timings,its not hard
to pick up. Enjoy!
Comments