Eyecons - Deranged Chords & Tabs

 

Deranged Chords & Tabs

Eyecons Chords & Tabs

Version: 1 Type: Tab 0 ratings
1 star 2 stars 3 stars 4 stars 5 stars
comments

Deranged Tab


Apparently this is the first song eyecons ever wrote. But it might be a roumour.

intro X2
e-----------------------------------------------------------------------------------------------
a-----------------------------------------------------------------------------------------------
d------4h5p4---------------4h5p4----------------------------------------------------------------
g--5-5----------4h5p4-2-2-----------------------------------------------------------------------
b-----------5-5-----------------3-3-3-----------------------------------------------------------
E-----------------------------------------------------------------------------------------------

verse X4
e-----------------------------------------------------------------------------------------------
a-----------------------------------------------------------------------------------------------
d--4-4-4-xxxx-----------------------------------------------------------------------------------
g--4-4-4-xxxx--6-6-xx--4-4-xx--2-2-2-2----------------------------------------------------------
b--2-2-2-xxxx--6-6-xx--4-4-xx--2-2-2-2----------------------------------------------------------
E--------------4-4-xx--2-2-xx--0-0-0-0----------------------------------------------------------
[ Tab from: http://www.guitartabs.cc/tabs/e/eyecons/deranged_tab.html ]
chorus x4
e-----------------------------------------------------------------------------------------------
a-----------------------------------------------------------------------------------------------
d-----------------------------------------------------------------------------------------------
g--4-x8--6-x8-----------------------------------------------------------------------------------
b--4-x8--6-x8-----------------------------------------------------------------------------------
E--2-x8--4-x8-----------------------------------------------------------------------------------

bridge x2
e---0------0-------0------0---------------------------------------------------------------------
a-0---0--2---2---0------0-----------------------------------------------------------------------
d-----------------------------------------------------------------------------------------------
g--------------4------2-------------------------------------------------------------------------
b-----------------------------------------------------------------------------------------------
E-----------------------------------------------------------------------------------------------

pre chorus (verse chords picked) x4

song order

intro x2
verse x4
chorus x4
verse x4
chorus x4
bridge x2
pre chorus x4 
chorus x4
chorus x4



Comments